American Hi-Fi - Nothing Left To Lose Text Guitar Tab

Learn the song with the online tablature player
Intro/Verse
e----------------------------------------------------------------------------
B----------------------------------------------------------------------------
G------------------------7-7-7-----------------------------------------------
D--7-7-7--2-2--4--5-5-5--7-7-7--6--7-7-7-------------------------------------
A--7-7-7--2-2--4--5-5-5--5-5-5--6--7-7-7-------------------------------------
E--5-5-5--0-0--2--3-3-3---------4--5-5-5-------------------------------------

Fill
e----------------------------------------------------------------------------
B----------------------------------------------------------------------------
G----------------------------------------------------------------------------
D--7-7--x-x--7-7--x-x--7-7---------------------------------------------------
A--7-7--x-x--7-7--x-x--7-7---------------------------------------------------
E--5-5--x-x--5-5--x-x--5-5---------------------------------------------------

Chorus
e----------------------------------------------------------------------------
B----------------------------------------------------------------------------
G--------------------4-4-4-4--7-7-7-7----------------------------------------
D--7-7-7-7--2-2-2-2--4-4-4-4--7-7-7-7--------x4------------------------------
A--7-7-7-7--2-2-2-2--2-2-2-2--5-5-5-5----------------------------------------
E--5-5-5-5--0-0-0-0----------------------------------------------------------

Bridge Thingy
e----------------------------------------------------------------------------
B----------------------------------------------------------------------------
G-----9--11--7-7-------------------------------------------------------------
D--7--9--11--7-7-------------------------------------------------------------
A--7--7--9---5-5-------------------------------------------------------------
E--5-------------------------------------------------------------------------

e----------------------------------------------------------------------------
B--10---7--------------------------------------------------------------------
G------------9---7-----------------------------------------------------------
D----------------------------------------------------------------------------
A----------------------------------------------------------------------------
E----------------------------------------------------------------------------

Order
Intro/Verse
Fill
Chorus
Intro/Verse
Fill
Chorus
Bridge Thingy
Chorus
Intro