And You Will Know Us By The Trail Of Dead - Blight Takes All Text Guitar Tab

Learn the song with the online tablature player
BLIGHT TAKES ALL
...AND YOU WILL KNOW US BY THE TRAIL OF DEAD

this is just the chords not the rhythms

1)

INTRO

G |------------------4------------------------------------|
D |----6----7---5----4---6---7---5---9--------------------|
A |----0----0---5----2---0---0---5---9--------------------|
E |----6----7---5----2---6---7---5---9--------------------|

2)

RIFF 1

G |-------------------------------------------------------|
D |----11------9------5-----------------------------------|
A |----11------9------5-----------------------------------|
E |----11------9------5-----------------------------------|

3)

RIFF 2

G |-------------------------------------------------------------|
D |-----2-----4-------------------------------------------------|
A |-----0-----4-------------------------------------------------|
E |-----2-----4-------------------------------------------------|

4)

RIFF 1
except longer)

5)

RIFF 2

6) DRUM SOLO

7) GUITAR SOLO (if you can call it that)

G |-------------------------------------------------------------------------|
D |-----2-2-2-2-5----5-5-5-5-2----------------------------------------------|
A |-------------------------------------------------------------------------|
E |-------------------------------------------------------------------------|

this happens a couple of times

8)

RIFF 1

END

EXTRA- this is the xylaphone part in riff 1 when it's played the second time written for guitar

E |---14--12--------------14--12---------------------------------7--5-----------7--5------------------14-------------------14---|
B |--------------15--14---------------15--14--12---------7--5-----------7--5------------15---12--------12---15---12---------12--|
G |-----------------------------------------------------------------------------------------------------------------------------|
D |-----------------------------------------------------------------------------------------------------------------------------|
A |-----------------------------------------------------------------------------------------------------------------------------|
E |-----------------------------------------------------------------------------------------------------------------------------|