And You Will Know Us By The Trail Of Dead - When We Begin To Steal Text Guitar Tab

Learn the song with the online tablature player
When We Begin To Steal
by ...AND YOU WILL KNOW US BY THE TRAIL OF DEAD

Intro & Verse:

Cmaj7   Dmaj7      A#maj7 Fmaj7      A#maj7 G#maj7  Gmaj7
e-----------------|-----------------|-----------------|------------------||
b-------------7---|-------------10--|-----------------|-----------------o||
g-----4-6---6---6-|-----2-9---9---9-|-------------0---|-----0---0--------||
D---2---4---------|---0---7---------|-----7-----5-----|---4---4---4------||
A-3-----5---------|-1-----8---------|---5-----3-------|-2-----------2---o||
E-----------------|-----------------|-6-----4-------3-|---------------3--||

Pre-Chorus
(extenstion of the Gmaj7-part)

Gmaj7
e-----------------|------------------||
b---------------0-|-----------------o||
g-----0---0-----0-|-----0---0--------||
D---4---4---4---4-|---4---4---4------||
A-2---------------|-------------2---o||
E-------------3---|-3-------------3--||

Chorus
(slight 1/8-swing)

Eadd9                                D
e-----2-2-----2-2-|-----2-2-----2-2-|-----2-2-----2-2-|-----2-2-----2-2--||
b-----0-0-----0-0-|-----0-------0-0-|-----3-3-----3---|-----3-3-----3-3-o||
g-----0-------0---|-----0-------0---|-2---2---2---2---|-2---2---2--------||
D-2---2---2-------|-2-------2---2---|-0-------0-------|-0-------0--------||
A-2-------2-------|-2-------2-------|-----------------|-----------------o||
E-0-------0-------|-0-------0-------|-----------------|------------------||

then...

Gmaj7           Cmaj7
e-----------------|-----------------|
b-----------------|-----------------|
g---------0-0---4-|----let-ring-----|
D---4-4-4-4-4---2-|-----------------|
A-2-2-2-2-2-2---3-|-----------------|
E-3-3-3-3-3-3-----|-----------------|