Andre Nickatina - 4am Bay Bridge Music Flute Text Guitar Tab

Learn the song with the online tablature player
4 AM BAY BRIDGE MUSIC FOR BASS (FLUTE)

G----------------------14-----------------|
D--------12-14-14-15-15---15-14-----------|
A--12-15----------------------------------|
E-----------------------------------------|

         (Play this part twice)
G--------------------------14-------------|
D--------12-14-12----12-H14--14-12--------|
A--12-15----------12----------------------|
E-----------------------------------------|

Just play this through out the whole song