Angels - She Keeps No Secrets Text Guitar Tab

Learn the song with the online tablature player
Intro
G|-----------------------------------|
D|-----------------------------------|
A|---------------233333333333320-----|
E|000000023333333---------------3----|

Verse
G|-----------------------------------|
D|-----------------------------------|
A|---------------233333333333320-----|
E|000000023333333---------------3----|

Pre Chorus
G|------------------------------------------------------------------------------|
D|------------------------------------------------------------------------------|
A|--------555555553333333333333333777777775555555533333333333333355555555-3-2-0-|
E|33333333----------------------------------------------------------------------|

Chorus Part 1 (play the notes stocatto)
G|-------0--------------------------|
D|-----0-------0-4------------------|
A|---2-------2-------0-2-3---0-2-3--|
E|-3-------3-------3-------3--------|

Chorus Part 2 (note that the final D note is played over the guitar doing a D-C-B-A degression)
G|------------------------------------------------------------------|
D|------------------------------------------------------------------|
A|---------555555553333333333333333555555555555555555555555---------|
E|-33333333---------------------------------------------------------|

Song Sequence:
Intro x 2
Verse x 4
Pre Chorus
Chorus Part 1 x 2
Chorus Part 2 x 1
Verse x 2
Pre Chorus
Chorus Part 1 x 2
Chorus Part 2 x 1
Verse x 4 (Guitar Solo)
Pre Chorus
Chorus Part 1 x 2
Chorus Part 2 repeat till fade