Angry Samoans - Gas Chamber Text Guitar Tab

Learn the song with the online tablature player
Start
part 1
start
part2

Start
G:------------  |-----------  |----------------------------------
D:------------4x|-----------4x|----------------------------------
A:---------22-  |4444-00-22-  |----------------------------------
E:4444-22-----  |-----------  |----------------------------------

part 1
G:---------------------------------------------------------------
D:---------------------------------------------------------------
A:----444-----222-7-7--7------------------------------------------
E:666-----444------7-7--7-----------------------------------------

part 2
G:---------------------------------------------------------------
D:---------------------------------------------------------------
A:------0-0-0-0-------2-4-4-4-4----------------------------------
E:0-0-2-----------2-2--------------------------------------------