Angry Samoans - Right Side Of My Mind Text Guitar Tab

Learn the song with the online tablature player
Right Side Of My Mind
by
The Angry Samoans

Main Riff
G---------------------------|
D---------------------------|
A-------55----------55------|
E-77-55---222-77-55----222--|

Chorus
G------------------------------|
D-----------5-7-5--------------|
A-------5-5-------------5-5----|
E-7-75-5----------7-75-5---222-|

Bridge
G---------------------------------|
D---------------------------------|
A-777555599999999-777555599999999-|
E---------------------------------|

End
G---------|
D---------|
A-----5---|
E-7-5---2-|(let ring)