Anti-Flag - Post War Breakout Text Guitar Tab

Learn the song with the online tablature player
                        Post-war Breakout - Anti-Flag

Intro
This involves two guitars)

Rhythm:
e|---------------------------------------------------------------------------|
B|---------------------------------------------------------------------------|
G|-----------8--8--8----10--10--10--10--10--10-------------------------------|
D|-8--8--8---8--8--8----10--10--10--10--10--10-------------------------------|x3
A|-8--8--8---6--6--6-----8---8---8---8---8---8-------------------------------|
E|-6--6--6-------------------------------------------------------------------|

Rhythm(cont.)
e|-----------------------------------------------------|
B|----------------------------------10-----------------|
G|-----------8--8--8----------10-----------------------|
D|-8--8--8---8--8--8-------10----10--------------------|
A|-8--8--8---6--6--6-----8-----------------------------|
E|-6--6--6---------------------------------------------|

Lead:
e|---------------------------------------------------------------------------|
B|-6h7h9p7p6h7p6-----6h7h9p7p6h7p6-----6h7p6p4p2p1---------------------------|
G|---------------------------------------------------------------------------|
D|---------------------------------------------------------------------------|
A|---------------------------------------------------------------------------|
E|---------------------------------------------------------------------------|

Chorus
e|----------------------------------------------------------------------|
B|----------------------------------------------------------------------|
G|-----------8-8-8-8---10--10--10--10--10--10--10--10-------------------|
D|--8-8-8-8--8-8-8-8---10--10--10--10--10--10--10--10-------------------|
A|--8-8-8-8--6-6-6-6----8---8---8---8---8---8---8---8-------------------|x4
E|--6-6-6-6-------------------------------------------------------------|

Verse

e|---------------------------------------------------------------------|
B|---------------------------------------------------------------------|
G|-----------8--8--8----10--10--10--10--10--10-------------------------|
D|-8--8--8---8--8--8----10--10--10--10--10--10-------------------------|x4
A|-8--8--8---6--6--6-----8---8---8---8---8---8-------------------------|
E|-6--6--6-------------------------------------------------------------|

Bridge
e|------------------------------------------|
B|------------------------------------------|
G|-11--10 -11-------------------------------|
D|-11--10--11-------------------------------|
A|--9---8--9------8-9-8-9-8-9-8-9-----------|
E|------------------------------------------|

Chorus
e|---------------------------------------------------------------------------|
B|---------------------------------------------------------------------------|
G|-----------8-8-8-8---10--10--10--10--10--10--10--10------------------------|
D|--8-8-8-8--8-8-8-8---10--10--10--10--10--10--10--10------------------------|
A|--8-8-8-8--6-6-6-6----8---8---8---8---8---8---8---8------------------------|x4
E|--6-6-6-6------------------------------------------------------------------|

After this, drums and bass play for awhile

Bridge
e|--------------------------------------------------------|
B|--------------------------------------------------------|
G|-11--10 -11---------------------------------------------|
D|-11--10--11---------------------------------------------|
A|--9---8--9------8-9-8-9-8-9-8-9--8-9-8-9-8-9-8-9--------|
E|--------------------------------------------------------|

Chorus
e|---------------------------------------------------------------------------|
B|---------------------------------------------------------------------------|
G|-----------8-8-8-8---10--10--10--10--10--10--10--10------------------------|
D|--8-8-8-8--8-8-8-8---10--10--10--10--10--10--10--10------------------------|
A|--8-8-8-8--6-6-6-6----8---8---8---8---8---8---8---8------------------------|x4
E|--6-6-6-6------------------------------------------------------------------|

FILL:
Basically, just strum the chords F5 starting at the eighth fret of the A string
then, strum its octave, or you could just tremolo pick the root notes instead

Chorus
e|---------------------------------------------------------------------------|
B|---------------------------------------------------------------------------|
G|-----------8-8-8-8---10--10--10--10--10--10--10--10------------------------|
D|--8-8-8-8--8-8-8-8---10--10--10--10--10--10--10--10------------------------|
A|--8-8-8-8--6-6-6-6----8---8---8---8---8---8---8---8------------------------|x4
E|--6-6-6-6------------------------------------------------------------------|

Again, drums and bass play to finish.

I hope you enjoyed this. Remember, please contact me if you find any errors.

Anti-Flag kicks ass!

| /  slide up
| \  slide down
| h  hammer-on
| p  pull-off
| ~  vibrato
| +  harmonic
| x  Mute note