Anti-Flag - The Bright Lights Of America Chords

Main Riff
 
No chord
    
Standard guitar tuning:
E
A
D
G
B
E
No capo

Intro

1st guitar:
e|-------------------|
B|-------------------|
G|--6-8--------------|
D|--6-8-4-8-6-8-4-6--|   x2
A|--4-6-4-8-6-8-4-6--|
E|------2-6-4-6-2-4--|
2nd guitar:
e|-----|    |------|
B|--9--|    |------|
G|--6--|    |--13--|
D|-----| or |--11--|
A|-----|    |------|
E|-----|    |------|
e|--13-16-13-13-13------|
B|---------------16-14--|
G|----------------------|
D|----------------------|
A|----------------------|
E|----------------------|

Verse

e|-------------|
B|-------------|
G|--6-653------|
D|--6-653-4-6--|   x2
A|--4-431-4-6--|
E|--------2-4--|

Pre-chorus

e|-----------|
B|-----------|
G|-----------|
D|--4-6-4-6--|
A|--4-6-4-6--|
E|--2-4-2-4--|

Chorus

e|--------------|
B|--------------|
G|--6-653-------|
D|--6-653-64-6--|   x2
A|--4-431-64-6--|
E|--------42-4--|
FILL (same as intro)

Bridge

e|-----------|
B|-----------|
G|----6------|
D|--8-6-6-4--|   x2
A|--8-4-6-4--|
E|--6---4-2--|

All Content on this page is the property of the copyright owner of the original composition.