Anti-Flag - Until It Happens To You Text Guitar Tab

Learn the song with the online tablature player
Hey, sorry if this isn't perfect-but I think it's pretty close.
This song's really awesome, so i figured i'd make the tab to it :)

KEY:
h- hammer on
p- pull off
v- vibrato
/- slide up
\- slide down

-Bass into (0:08)

INTRO/Riff #1:
e-------------------------------|-------------------------------|
B----9---9-9---9-9---9--12--9--7|-9---9-9---9---------------2*--|
G------8-----8-----8------------|---8-----8---8p6h8p6h8p6h8----8|
D-------------------------------|-------------------------------|
A-------------------------------|-------------------------------|
E-------------------------------|-------------------------------|

VERSE
e---------|   Just repeat this as many times as needed until the chorus.
B---------|   Listen to the song for correct placement/ rhythm.
G---------|
D-7---10--|
A-7----8--|
E-5----8--|

CHORUS
D             C
e--------------------------------------------------------------."      "You turn your face
B-------------------------|       D----------------------------."              A
G-7---5---7-------7---5----------------------------------------."       You turn your back
D-7---5---7---7---7---5--7|            D         C-------------."        A
A-5---3---5---7---5---3--7|       You say that can't be true..-."
E-------------5----------5-------------------------------------."
  D   C       A

-Then play riff #1 (intro) for the bridge part here
-Repeat verse and chorus
-then play riff #2

Riff #2:
e-----------------------|
B-----------------------|
G------5----------7-----|  (x2) this is the part before the solo
D--7---5---7--7---7---7-|
A--7---3---7--7---5---7-|
E--5-------5--5-------5-|

SOLO
e-------------------------|-------------------|------7p6p4--7p6p4--7p6p4--|
B-------------------------|--9---9-9---9-9-9--|-9--7----------------------|
G--8p6h8p6h8p6h8p6h8p6h-8-|--8-8-8-8-8-8-8-8-8|---------------------------|
D-------------------------|-------------------|---------------------------|
A-------------------------|-------------------|---------------------------|
E-------------------------|-------------------|---------------------------|

e-7p6p4--7-5-4h6p4-/-9-9-9|--------------4---4-4-4-|--------------------|
B-------------------------|4\0---0-0-0---4-4-4-4-4-|-----------------2--|
G-------------------------|----1-------1-----------|-1v--1--3--4\-1v---4|
D-------------------------|------------------------|--------------------|
A-------------------------|------------------------|--------------------|
E-------------------------|------------------------|--------------------|

- I think it's pretty close. The third and 4th measure's may be a little bit sketchy,
i don't think they're too far off. The rest should be fine. :)

-then the next part is mostly just bass and drums, but it does sound like there's one
chord at the part where he says "yeah they call it america/ land of the free/ home of the
the last time :

G-8-|
D-8-|
A-6-|

- then just repeat the chorus and you're done!

just listen to the song to figure out the exact timing for some parts-

ENJOY!