Apex Theory - Apossibly Text Guitar Tab

Learn the song with the online tablature player
This is a fairly easy song.  He only uses about 4 riffs the entire song.

INTRO

He uses a slight delay during the intro.  You can play this intro many ways
for instance, you can do the entire intron on the E string, but its easier
if you do it like this:

E ----17--15h17--13h15--------------------------------------------------|
B ----------------------17h18--15h17--14--14h15p14----------------------|
G ---------------------------------------------------14-----------------|
D ----------------------------------------------------------------------|
A ----------------------------------------------------------------------|
D ----------------------------------------------------------------------|

PART AFTER INTRO AND CHORUS

E ----------------------------------------------------------------------|
B ----------------------------------------------------------------------|
G ----------------------------------------------------------------------|
D ---8--8-8----0-0-0--7-7-7-7----8-8-8-8--0-0-0--7-7-7-7----------------|
A ---8--8-8----0-0-0--7-7-7-7----8-8-8-8--0-0-0--7-7-7-7----------------|
D ---8--8-8----0-0-0--7-7-7-7----8-8-8-8--0-0-0--7-7-7-7----------------|

The verse is very simple, it is just variations of the opening lick:

E ---15h17---15h17---15---15h17---------------

That kinda stuff

That is pretty much it, he playes each riff a few more times and thats the whole song!

Simply breathtaking...