Archie Star - Fever Text Guitar Tab

Learn song with the online tabulature player
Forgive me this is my first tab, but it sounds right, couldn't find the solo anywhere so 
tabbed it myself

Standard Tuning
Capo on 1st Fret

h = Hammer on
/ = Slide


E|--8-10-12-10-8--------8-8-------8-10-8-|
B|-9------------9-7-7-9----9-7-7-9-9-----|
G|---------------------------------------|
D|---------------------------------------|
A|---------------------------------------|
E|---------------------------------------|

SOLO CONTINUED

E|--8-10-12-10-8---------------8-10-8-|
B|-9------------9-7-7-9-7--7-9--9-----|
G|------------------------9-----------|
D|------------------------------------|
A|------------------------------------|
E|------------------------------------|

SOLO CONTINUED

E|--8-10-12-15-12----------10--10-/12-10----------------|
B|-9---------------------12--12---------12-10-h12-10-/9-|
G|---------------14-12-14-------------------------------|
D|------------------------------------------------------|
A|------------------------------------------------------|
E|------------------------------------------------------|


Drop down and "yea i got a fever" is just variations on this:

E|-10-7---10-7---10-7------10-7---10-7---10-7-|
B|------8------8---------8------8------8------|
G|--------------------------------------------|
D|--------------------------------------------|
A|--------------------------------------------|
E|--------------------------------------------|

thanks if you notice anything wrong with it or it needs correcting please post your 
version up