Arctic Monkeys - Fluorescent Adolescent Text Guitar Tab

Learn the song with the online tablature player
INTRO

[GUITAR 1]

e-|-------------------------------------------------|
B-|-------------------------------------------------|
G-|-------------------------------------------------|
D-|-------------------------------------------------|
A-|-------------2-4---4-2-----------4-2---2-2-------|
E-|---0---0-2-4-----------2---2---2-----------4-2---|

e-|---------------------------------------------|
B-|---------------------------------------------|
G-|---------------------------------------------|
D-|---------------------------------------------|
A-|-------------2-4---4-2-----------4-2---2-2---|
E-|---0---0-2-4-----------2---2---2-------------|

[GUITAR 2]

e-|---7----9----9-7---2---7---|
B-|---9----9----9-7---2---7---|
G-|---9----9----9-8---2---8---|
D-|---9---11---11-9---4---9---|
A-|---7---11---11-9---4---9---|
E-|---------------------------|

e-|---7-7-7-7---7-7-7----9--9--9----9-9-9-7---2-2-2-2---2-2-2---7-7-7-7---7-7-7---|
B-|---9-9-9-9---9-9-9----9--9--9----9-9-9-7---2-2-2-2---2-2-2---7-7-7-7---7-7-7---|
G-|---9-9-9-9---9-9-9----9--9--9----9-9-9-8---2-2-2-2---2-2-2---8-8-8-8---8-8-8---|
D-|---9-9-9-9---9-9-9---11-11-11---111111-9---4-4-4-4---4-4-4---9-9-9-9---9-9-9---|
A-|---7-7-7-7---7-7-7---11-11-11---111111-9---4-4-4-4---4-4-4---9-9-9-9---9-9-9---|
E-|-------------------------------------------------------------------------------|

VERSE 1

[GUITAR 1]

e-|-------------------------------------------|
B-|-------------------------------------------|
G-|-------------------------------------------|
D-|-------------------------------------------|
A-|-------------------------------------------|
E-|-------------------------------------------|

e-|-------------------------------------------|
B-|-------------------------------------------|
G-|-------------------------------------------|
D-|-------------------------------------------|
A-|-------------2-4---4-2-----------4-2---2---|
E-|---0---0-2-4-----------2---2---2-----------|

[GUITAR 2]

e-|-------------------------------------------------------------------------------|
B-|-------------------------------------------------------------------------------|
G-|-------------------------------------------------------------------------------|
D-|-------------------------------------------------------------------------------|
A-|-------------------------------------------------------------------------------|
E-|-------------------------------------------------------------------------------|

e-|---7-7-7-7---7-7-7----9--9--9----9-9-9-7---2-2-2-2---2-2-2---7-7-7-7---7-7-7---|
B-|---9-9-9-9---9-9-9----9--9--9----9-9-9-7---2-2-2-2---2-2-2---7-7-7-7---7-7-7---|
G-|---9-9-9-9---9-9-9----9--9--9----9-9-9-8---2-2-2-2---2-2-2---8-8-8-8---8-8-8---|
D-|---9-9-9-9---9-9-9---11-11-11---111111-9---4-4-4-4---4-4-4---9-9-9-9---9-9-9---|
A-|---7-7-7-7---7-7-7---11-11-11---111111-9---4-4-4-4---4-4-4---9-9-9-9---9-9-9---|
E-|-------------------------------------------------------------------------------|

CHORUS 1

[GUITAR 1 & 2]

e-|---2-2---7-7---2-2---2-2---7-7---7-7---|
B-|---2-2---7-7---2-2---2-2---7-7---7-7---|
G-|---2-2---8-8---2-2---2-2---8-8---8-8---|
D-|---4-4---9-9---4-4---4-4---9-9---9-9---|
A-|---4-4---9-9---4-4---4-4---9-9---9-9---|
E-|---2-2---7-7---2-2---2-2---7-7---7-7---|

e-|---2-2-2-2-2-2-2-2---7-7-7-7-7-7-7-7---2~---5~---|
B-|---2-2-2-2-2-2-2-2---7-7-7-7-7-7-7-7---2~---5~---|
G-|---2-2-2-2-2-2-2-2---8-8-8-8-8-8-8-8---2~---7~---|
D-|---4-4-4-4-4-4-4-4---9-9-9-9-9-9-9-9---4~---7~---|
A-|---4-4-4-4-4-4-4-4---9-9-9-9-9-9-9-9---4~---7~---|
E-|---2-2-2-2-2-2-2-2---7-7-7-7-7-7-7-7---2~---5~---|

VERSE 2

[GUITAR 1]

e-|------------12---9---7-12-9------------16---|
B-|---------12------9---7-12-9---------16------|
G-|------13---------9---8-11-9------17---------|
D-|---14-------------------------18------------|
A-|--------------------------------------------|
E-|--------------------------------------------|

e-|------------12---9---7-12-9---|
B-|---------12------9---7-12-9---|
G-|------13---------9---8-11-9---|
D-|---14-------------------------|
A-|------------------------------|
E-|------------------------------|

[GUITAR 2]

e-|---7-7-7-7---7-7-7----9--9--9--9----9-7---2-2-2-2---2-2-2---7-7-7-7---7-7-7---|
B-|---9-9-9-9---9-9-9----9--9--9--9----9-7---2-2-2-2---2-2-2---7-7-7-7---7-7-7---|
G-|---9-9-9-9---9-9-9----9--9--9--9----9-8---2-2-2-2---2-2-2---8-8-8-8---8-8-8---|
D-|---9-9-9-9---9-9-9---11-11-11-11---11-9---4-4-4-4---4-4-4---9-9-9-9---9-9-9---|
A-|---7-7-7-7---7-7-7---11-11-11-11---11-9---4-4-4-4---4-4-4---9-9-9-9---9-9-9---|
E-|------------------------------------------------------------------------------|

e-|---7-7-7-7---7-7-7----9--9--9--9----9-7---2-2-2---|
B-|---9-9-9-9---9-9-9----9--9--9--9----9-7---2-2-2---|
G-|---9-9-9-9---9-9-9----9--9--9--9----9-8---2-2-2---|
D-|---9-9-9-9---9-9-9---11-11-11-11---11-9---4-4-4---|
A-|---7-7-7-7---7-7-7---11-11-11-11---11-9---4-4-4---|
E-|--------------------------------------------------|

CHORUS 2

[GUITAR 1 & 2]

e-|---2-2-2-2-2-2-2-2---7-7-7-7-7-7-7-7---|
B-|---2-2-2-2-2-2-2-2---7-7-7-7-7-7-7-7---|
G-|---2-2-2-2-2-2-2-2---8-8-8-8-8-8-8-8---|
D-|---4-4-4-4-4-4-4-4---9-9-9-9-9-9-9-9---|
A-|---4-4-4-4-4-4-4-4---9-9-9-9-9-9-9-9---|
E-|---2-2-2-2-2-2-2-2---7-7-7-7-7-7-7-7---|

e-|---2-2-2-2-2-2-2-2---7-7-7-7-7-7-7-7---2-2---7-7---|
B-|---2-2-2-2-2-2-2-2---7-7-7-7-7-7-7-7---2-2---7-7---|
G-|---2-2-2-2-2-2-2-2---8-8-8-8-8-8-8-8---2-2---8-8---|
D-|---4-4-4-4-4-4-4-4---9-9-9-9-9-9-9-9---4-4---9-9---|
A-|---4-4-4-4-4-4-4-4---9-9-9-9-9-9-9-9---4-4---9-9---|
E-|---2-2-2-2-2-2-2-2---7-7-7-7-7-7-7-7---2-2---7-7---|

BRIDGE

[GUITAR 1]

E-|---------------------------14--------------------14--------------------14--------------------14-------------------|
B-|------------------------16----14---16---------16----14---16---------16----14---16---------16----14---16-----------|
G-|---------------------16---------------13---16---------------13---16---------------13---16---------------13---11---|
D-|------------------------------------------------------------------------------------------------------------------|
A-|------------------------------------------------------------------------------------------------------------------|
E-|------------------------------------------------------------------------------------------------------------------|

[GUITAR 2]

e-|---2-2-2-2-2-2-2-2---7-7-7-7-7-7-7-7---4--4---4--4----9---9----9---9---2--2---2--2---4--4---2--2---|
B-|---2-2-2-2-2-2-2-2---7-7-7-7-7-7-7-7---4--4---4--4----9---9----9---9---2--2---2--2---4--4---2--2---|
G-|---2-2-2-2-2-2-2-2---8-8-8-8-8-8-8-8---4--4---4--4----9---9----9---9---2--2---2--2---4--4---2--2---|
D-|---4-4-4-4-4-4-4-4---9-9-9-9-9-9-9-9---6--6---6--6---11--11---11--11---4--4---4--4---6--6---4--4---|
A-|---4-4-4-4-4-4-4-4---9-9-9-9-9-9-9-9---6--6---6--6---11--11---11--11---4--4---4--4---6--6---4--4---|
E-|---2-2-2-2-2-2-2-2---7-7-7-7-7-7-7-7---------------------------------------------------------------|

OUTRO

[GUITAR 1]

e-|-------------------------------------------------|
B-|-------------------------------------------------|
G-|-------------------------------------------------|
D-|-------------------------------------------------|
A-|-------------2-4---4-2-----------4-2---2-2-------|
E-|---0---0-2-4-----------2---2---2-----------4-2---|

e-|-------------------------------------------|
B-|-------------------------------------------|
G-|-------------------------------------------|
D-|-------------------------------------------|
A-|-------------2-4---4-2-----------4-2---2---|
E-|---0---0-2-4-----------2---2---2-----------|

e-|-------------------------------------------------------|
B-|-------------------------------------------------------|
G-|-------------------------------------------------------|
D-|-------------------------------------------------------|
A-|-------------2-4---4-2-----------4-22222222-66666764---|
E-|---0---0-2-4-----------2---2---2-----------------------|

e-|-------------------------------------------|
B-|-------------------------------------------|
G-|-------------------------------------------| x4
D-|-------------------------------------------|
A-|-------------2-4---2-------------4-2---2---|
E-|---0---0-2-4---------4-2---2---2-----------|

[GUITAR 2]

e-|---7-7-7----9--9--9---2-2---2-7-7-7---|
B-|---9-9-9----9--9--9---2-2---2-7-7-7---|
G-|---9-9-9----9--9--9---2-2---2-8-8-8---|      x2
D-|---9-9-9---11-11-11---4-4---4-9-9-9---|
A-|---7-7-7---11-11-11---4-4---4-9-9-9---|
E-|--------------------------------------|

e-|---7-7-7----9--9--9----9-7---2-2-2---2/7-7-7-7-7-7-7-7-7-7-7-7-7-7-7-7---|
B-|---9-9-9----9--9--9----9-7---2-2-2---2/7-7-7-7-7-7-7-7-7-7-7-7-7-7-7-7---|
G-|---9-9-9----9--9--9----9-8---2-2-2---2/8-8-8-8-8-8-8-8-8-8-8-8-8-8-8-8---|
D-|---9-9-9---11-11-11---11-9---4-4-4---4/9-9-9-9-9-9-9-9-9-9-9-9-9-9-9-9---|
A-|---7-7-7---11-11-11---11-9---4-4-4---4/9-9-9-9-9-9-9-9-9-9-9-9-9-9-9-9---|
E-|-------------------------------------------------------------------------|

e-|---7-7-7-7---7-7-7----9--9--9--9----9-7---2-2-2-2---2-2-2---7-7-7-7---7-7-7---|
B-|---9-9-9-9---9-9-9----9--9--9--9----9-7---2-2-2-2---2-2-2---7-7-7-7---7-7-7---|
G-|---9-9-9-9---9-9-9----9--9--9--9----9-8---2-2-2-2---2-2-2---8-8-8-8---8-8-8---|      x4
D-|---9-9-9-9---9-9-9---11-11-11-11---11-9---4-4-4-4---4-4-4---9-9-9-9---9-9-9---|
A-|---7-7-7-7---7-7-7---11-11-11-11---11-9---4-4-4-4---4-4-4---9-9-9-9---9-9-9---|
E-|------------------------------------------------------------------------------|

e-|---4~---|
B-|---4~---|
G-|---4~---|
D-|---6~---|
A-|---6~---|
E-|---4~---|