Area 51 - Liar Text Guitar Tab

Learn the song with the online tablature player
This is the bassline for LIAR by AREA 51!  The bass follows the guitar
line using jazz and blues scales.  Finger picking is extremely crucial
here.  The bassline is very fast and accuracy is needed greatly.
(no effects used)

Slide Intro:
G----------------------------------------------------------------
D----------------------------------------------------------------
A----------------------------------------------------------------
E-3--6--3--3--8--3--3--12--3-------------------------------------

Verses While Singing:
G----------------------------------2--3--2------------------------------
D----------2--3--2-----------2--5-----------5--2---------------------
A----2--5-----------5--2--3--------------------------------------------
E-3-----------------------------------------------------------------------

Verses While Singing:
G-------------0--------------------------2--3--2-----------------------
D-------2--4-----4--2--------------2--5-----------5--2--------------
A-0--4-----------------4--3--2--3------------------------------------
E-------------------------------------------------------------------------

Verses With No Vocals:
G-------------------------------------------------------------------------
D-------------------------------------------------------------------------
A-------------------------3--3--x--x--3--3--3--0--------------------
E-3--3--x--x--3--3--3--0--------------------------------------------

Wah Guitar Break:
G-------------------------------3--5--3---------------------------------
D----------3-----3--5-----3--5-----------5--3------------------------
A----3--5-----5--------3------------------------------------------------
E-3-----------------------------------------------------------------------