Area 51 - Understanding Text Guitar Tab

Learn the song with the online tablature player
This is the mournful memory Understanding by AREA 51!  I believe that
the verse uses mild chorus and delay effect with a lot of reverb.  The
chorus and interlude are clean with a slap/tap driver.
Submitted by: Pepper5414

Verse
G------------------------------------------------------------------------------|
-------------------------------------------------------------------------------|
D-------------3--------------3-------------------------------------------------|
-------------------------------------------------------------------------------|
A----------3--------------3-----3----------------------------------------------|
-------------------------------------------------------------------------------|
E-1--1--1--------1--1--1-----------1-------------------------------------------|
-------------------------------------------------------------------------------|

Verse 2
G-------------1--0--------------------1--5--0----------------------------------|
-------------------------------------------------------------------------------|
D-------3-----------3-----------3--------------3-------------------------------|
-------------------------------------------------------------------------------|
A----3-----3-----------3-----3-----3-------------------------------------------|
-------------------------------------------------------------------------------|
E-1-----------------------1----------------------------------------------------|
-------------------------------------------------------------------------------|

Fill At End Of Verse 2:
G-1--0-----1--0-----1--0--1--0-----1--0-----1--0-------------------------------|
-------------------------------------------------------------------------------|
D-------3--------3--------------3--------3-------------------------------------|
-------------------------------------------------------------------------------|
A------------------------------------------------------------------------------|
-------------------------------------------------------------------------------|
E-------------------------------------------------1--1--1--1-------------------|
-------------------------------------------------------------------------------|

Chorus
G-----------------------------------------10-----------------------------------|
-------------------------------------------------------------------------------|
D-------------------------------10---------------10----------------------------|
-------------------------------------------------------------------------------|
A-3--3--3--3--5--5--5--5--8--8------8--8------8--------------------------------|
-------------------------------------------------------------------------------|
E------------------------------------------------------------------------------|
-------------------------------------------------------------------------------|

Chorus
G------------------------------------------------------------------------------|
-------------------------------------------------------------------------------|
D------------------------------------------------------------------------------|
-------------------------------------------------------------------------------|
A-3--3--3--3--5--5--5--5-------------------------------------------------------|
-------------------------------------------------------------------------------|
E-------------------------5--x--x--5--6--x--x--6-------------------------------|
-------------------------------------------------------------------------------|

Interlude
G------------------------------------------------------------------------------|
-------------------------------------------------------------------------------|
D------------------------------------------------------------------------------|
-------------------------------------------------------------------------------|
A------------------------------------------------------------------------------|
-------------------------------------------------------------------------------|
E-1--8--1--8--1--8--1--8--1--8--8--8--8--8--8--8-------------------------------|
-

And that's the amazing song Understanding by AREA 51 low key/genocide
records!
Submitted by:  Pepper5414