Ari Hest - Anne Marie Text Guitar Tab

Learn song with the online tabulature player
Anne Marie - Somebody to Tell - Ari Hest
Standard Tuning, Capo 3, 12 String
(h) notates hammer-on
This is taken off of his live performances. Any corrections or suggestions welcome! zburnham3@hotmail.com

1. Intro/Pre-Verse
E|-7---6---5-------7---6---5---0-|
B|-7---6---5---5---7---6---5---3-|
G|-7---6---5---5---7---6---5---0-|
D|-5---5---5---5---5---5---5---4-|
A|-------------6---------------5-|
E|-------------------------------|

2. Verse
E|-0---0---0-|
B|-0---1---1-|
G|-0---2---0-|
D|-2---2---2-|
A|-2---0---3-|
E|-0---------|

3. Pre-Chorus
E|-2---0---0---2---0---0---0-|
B|-3---3---3---3---3---3---3-|
G|-2---2---0---2---2---0---0-|
D|-0---0---2---0---0---2---1-|
A|-----2---3-------2---3---3-|
E|---------------------------|

4. Chorus                  5. Post-Chorus
E|-3----3---3---3----3---3-|-0---0---3-]
B|-0h1--1---1---0h1--1---0-|-0---3---1-]
G|-0----0---2---0----0---0-|-0---2---0-]
D|-0----2---0---0----2---1-|-2---0---2-]
A|-2----3---x---2----3---3-|-2---x---0-]
E|-3--------2---3----------|-0---2-----]

6. Interlude
E|-2---0-|
B|-3---3-|
G|-2---0-|
D|-0---2-|
A|-----3-|
E|-------|


(1) Its not your stature that tilts the scale
It’s not your know-how that whites me pale
(2) Haven’t you noticed I so often succumb
Playing the novice I just suck on my thumb
(3) I’m singing the harmony to the melody you hum
I march like a soldier to the beat of your drum

(4) Anne Marie
It is all in your delivery
Can you help that you belittle me?
(5) Its not your fault
I feel so small
Anne Marie

(1) I call to question
This pattern of disease
A predilection
Of yet another harsh decree

(2) There is a rhythm pulsing out of control
driving us swiftly away from our goal
(3) Here in my heart babe it’s carving a hole
Pounding me weak, penetrating my soul

(4) Anne Marie
It is all in your delivery
Can you help that you belittle me?
(5) Its not your fault
I feel so small
Anne Marie

(1) Anne Marie
Oh Anne Marie
What you're doing
What you're doing
to me, to me, to me

(2)

(6) What you're doing
What you're doing

(4) Anne Marie
It is all in your delivery
I am trying now to make you see
Are we working towards a better we?
Or am I sounding out a hopeless plea?
It is there in your delivery
I am trying now to make you see

(5) Its not your fault
I feel so small
Anne Marie

(1) Oh Anne Marie
What you're doing to me