Armor For Sleep - Remember To Feel Real Text Guitar Tab

Learn the song with the online tablature player
At some points in this song it is difficult for me to differentiate between the two
guitar parts, in which case I just play what sounds best to me (usually a mix of both parts
is my guess.)

                             Remember To Feel Real - Armor For Sleep

Intro
both guitars)
   Em          D            C
E|----------------------------------------------------|
B|-----------------------------12^-12^-12^-12-12-12---|
G|-------5-5p0-7-7--7-7-7-----------------------------| x2
d|-2-2-2-------4-4--4-4-4---10------------------------|
A|-2-2-2-------5-5--5-5-5---10------------------------|
D|-2-2-2-------0-0--0-0-0---10------------------------|
               .    .

Verse 1 Can't tell if there is even guitar in the first part but I'll give you the
chords according to the bass.  May want to palm mute it.

First Part:
   Em               D             C
E|----------------------------------------------------------------|
B|----------------------------------------------------------------|
G|--------------------------------5-5-5-5-5-5-5-5--5-5-5-5-5-5-5--| x8 or so
d|-2-2-2-2-2-2-2-2--0-0-0-0-0-0-0-5-5-5-5-5-5-5-5--5-5-5-5-5-5-5--|
A|-2-2-2-2-2-2-2-2--0-0-0-0-0-0-0-3-3-3-3-3-3-3-3--3-3-3-3-3-3-3--|
D|-2-2-2-2-2-2-2-2--0-0-0-0-0-0-0---------------------------------|

Second Part (w/delay):
E|-------------------------------------|
B|-12br-------------15-15--------------|
G|------12h14p12-12-------12h14p12-12--|  x4
d|-------------------------------------|
A|-------------------------------------|
D|-------------------------------------|

Prechorus or whatever:

Guitar 1:
   Em       C             G       G/F#
E|---------------------------------------------|
B|---------------------------------------------|
G|---------------------------------------------|
d|-2--2-2--/10--10-10-10--3--3-3--2--2-2--2-2--|
A|-2--2-2--/10--10-10-10--3--3-3--3--3-3--3-3--|
D|-2--2-2--/10--10-10-10--3--3-3--2--2-2--2-2--|

   Em       C             G       G/F#
E|---------------------------------------------|
B|---------------------------------------------|
G|---------------------------------------------|
d|-2--2-2-/10--10-10-10--xx--xx--xxxxxxxx------|
A|-2--2-2-/10--10-10-10--xx--xx--xxxxxxxx------|
D|-2--2-2-/10--10-10-10--xx--xx--xxxxxxxx------|

Guitar 2:
E|-----0-----0-------0-------0-----0----|
B|-5/7---7/8---10/12---12\10---8\7---7--|
G|--------------------------------------|  x4 or so
d|--------------------------------------|
A|--------------------------------------|
D|--------------------------------------|

Chorus
I'm gonna tab it out as separate parts but I usually play them together)

Guitar 1:

   C                               Em
E|------------------------------------------------------------------|
B|-------8-8-8-8-8-8-8-8-8-8-8-8-8-------7-7-7-7-7-7-7-7-7-7-7-7-7--|
G|-5-5-5------------------------------------------------------------|
d|-5-5-5---------------------------2-2-2----------------------------|
A|-3-3-3---------------------------2-2-2----------------------------|
D|---------------------------------2-2-2----------------------------|

   C                               Em
E|------------------------------------------------------------------|
B|-------5-5-5-5-5-5-5-5-5-5-5-5-5----------------------------------|
G|-5-5-5---------------------------------11-11-11-12-12--7-7-7-9-9--|
d|-5-5-5---------------------------2-2-2-x--x--x--x--x---x-x-x-x-x--|
A|-3-3-3---------------------------2-2-2-9--9--9--10-10--5-5-5-7-7--|
D|---------------------------------2-2-2----------------------------|

Guitar 2:
   C                               Em
E|------------------------------------------------------------------|
B|-------8-8-8-8-8-8-8-8-8-8-8-8-8----------------------------------|
G|-5-5-5---------------------------------4-4-4-4-4-4-4-4-4-4-4-4-4--|
d|-5-5-5---------------------------2-2-2----------------------------|
A|-3-3-3---------------------------2-2-2----------------------------|
D|---------------------------------2-2-2----------------------------|

   C                               Em
E|------------------------------------------------------------------|
B|------------------------------------------------------------------|
G|-5-5-5-7-7-7-7-7-7-7-7-7-7-7-7-7-------11-11-11-12-12--7-7-7-9-9--|
d|-5-5-5---------------------------2-2-2-x--x--x--x--x---x-x-x-x-x--|
A|-3-3-3---------------------------2-2-2-9--9--9--10-10--5-5-5-7-7--|
D|---------------------------------2-2-2----------------------------|

Post-Chorus (not positive about this one)

   Em       D           C                      C
E|---------------------------------------------------------------------|
B|------------------------12^-12^-12^-12-12-12---12^-12^-12^-12-12-12--|
G|----------7-7--7-7-7-------------------------------------------------|
d|-2-2-2-2--4-4--4-4-4--10---------------------10----------------------|
A|-2-2-2-2--5-5--5-5-5--10---------------------10----------------------|
D|-2-2-2-2--0-0--0-0-0--10---------------------10----------------------|
pm****** .  .    .

Bridge thing
One of those parts that has so much going on it's hard to pick out what's what.

Guitar 1:
   Em
E|------------------0-----|
B|-------3-------------3--|
G|----0--------0----------|
d|---4------4----4--------|
A|--2---------------------|
D|-2----------------------|

Guitar 2:
   Em
E|---7----7------|
B|-5----3-----3--|
G|---------------|
d|---------------|
A|---------------|
D|---------------|

Outro

Guitar 1:
   D  Em
E|-----------------------------------|
B|-----------------------------------|
G|--------11-11-11-12-12--7-7-7-9-9--| x4
d|-0-2-2--x--x--x--x--x---x-x-x-x-x--|
A|-0-2-2--9--9--9--10-10--5-5-5-7-7--|
D|-0-2-2-----------------------------|

Guitar 2:
   D  Em
E|-------------------------------------|
B|-------------------------------------|
G|--------14-14-14-16-16--7-7-7-12-12--| x4
d|-0-2-2--x--x--x--x--x---x-x-x-x--x---|
A|-0-2-2--12-12-12-14-14--9-9-9-10-10--|
D|-0-2-2-------------------------------|

End on:
   D  Em
E|--------|
B|--------|
G|--------|
d|-0-2-2\-|
A|-0-2-2\-|
D|-0-2-2\-|

| /   slide up
| \   slide down
| h   hammer-on
| p   pull-off
| ~   vibrato
| +   harmonic
| x   Mute note
| b   Bend
| pb  Pre-bend
| br  Bend release
| pbr Pre-bend release
| brb Bend release bend
| *   Palm Mute
| .   Staccato