As Blood Runs Black - In Dying Days Text Guitar Tab

Learn the song with the online tablature player
_GUITAR 1___________________

|---------------|------------------------------|
|---------------|------------------------------|
|---------------|------------------------------|
|---------------|------------------------------|
|--5-----5------|--8---7---10---8---7---7h8p7--|
|----000---000--|----0---0----0---0---0--------|
PM   ...   ...       .   .    .   .   .

|-----------------------|-----------------------|
|-----------------------|-----------------------|
|-----------------------|-----------------------|
|-----------------------|-----------------------|
|--8-----7h8p7---5h7p5--|--7-----5h7p5---4h5p4--|
|--8-888-------8--------|--7-777-------7--------|
PM   ...       .             ...       .

|---------------|---------------------------|
|---------------|---------------------------|
|---------------|---------------------------|
|---------------|---------------------------|
|--5-----5------|--8h10---10h12---8h10p8p7--|
|----000---000--|-------0-------0-----------|
PM   ...   ...          .       .

|--------------------------------------|
|--------------------------------------|
|--------------------------------------|
|--------------------------------------|
|------777-888-101010-888-777-555-444--|
|--888---------------------------------|

|---------------|------------------------------|
|---------------|------------------------------|
|---------------|------------------------------|
|---------------|------------------------------|
|--5-----5------|--8---7---10---8---7---7h8p7--|
|----000---000--|----0---0----0---0---0--------|
PM   ...   ...       .   .    .   .   .

|-----------------------|-----------------------|
|-----------------------|-----------------------|
|-----------------------|-----------------------|
|-----------------------|-----------------------|
|--8-----7h8p7---5h7p5--|--7-----5h7p5---4h5p4--|
|--8-888-------8--------|--7-777-------7--------|
PM   ...       .             ...       .

|---------------|---------------------------|
|---------------|---------------------------|
|---------------|---------------------------|
|---------------|---------------------------|
|--5-----5------|--8h10---10h12---8h10p8p7--|
|----000---000--|-------0-------0-----------|
PM   ...   ...          .       .

|--------------------------------------|-----|
|--------------------------------------|-----|
|--------------------------------------|-----|
|--------------------------------------|-----|
|------777-888-101010-888-777-555-444--|--0--|
|--888---------------------------------|--0--|

_GUITAR 2___________________

|-------|-------|-----------|
|-------|-------|-----------|
|-------|-------|-----------|
|-------|-------|-----------|
|--0----|--(0)--|--10---7---|
|--0----|--(0)--|--10---7---|

|---------------|------------------------|
|---------------|------------------------|
|---------------|------------------------|
|--3-----3------|--7h8---8h10---7h8p7p5--|
|---------------|------------------------|
|----000---000--|------0------0----------|
PM   ...   ...         .      .

|-----------------------------------|
|-----------------------------------|
|-----------------------------------|
|------555-777-888-777-555-333-222--|
|-----------------------------------|
|--888------------------------------|

|---------------|-----------------------------|
|---------------|-----------------------------|
|---------------|-----------------------------|
|--3-----3------|--7---5---8---7---5---5h7p5--|
|---------------|-----------------------------|
|----000---000--|----0---0---0---0---0--------|
PM   ...   ...       .   .   .   .   .

|---------------------|---------------------|
|---------------------|---------------------|
|---------------------|---------------------|
|--------7h5p7-3h5p3--|--------3h5p3-2h3p2--|
|--8------------------|--7------------------|
|--8-888--------------|--7-777--------------|
PM   ...                   ...

|---------------|------------------------|
|---------------|------------------------|
|---------------|------------------------|
|--3-----3------|--7h8---8h10---7h8p7p5--|
|---------------|------------------------|
|----000---000--|------0------0----------|
PM   ...   ...         .      .

|-----------------------------------|-----|
|-----------------------------------|-----|
|-----------------------------------|-----|
|------555-777-888-777-555-333-222--|-----|
|-----------------------------------|--0--|
|--888------------------------------|--0--|