ASG - Cowboys And Indians Text Guitar Tab

Learn the song with the online tablature player
                             Cowboys And Indians - ASG

intro                                        x1
e|--------------------------------------|------|------------------------------|
B|--------------------------------------|------|------------------------------|
G|--------------------------------------|------|------------------------------|
D|--------------------------------------|------|------------------------------|
A|--------------------------------------|--11b-|-----------10-12p10-------10--|
E|--000--12-12-12--000--12-10~----------|------|--10-10-12----------12-10-----|

riff 1
e|-------------------|----|----|
B|-------------------|----|----|
G|-------------------|----|----|
D|-------------------|----|----|
A|--333333-----------|----|-/7-|
E|---------3-0--0-3--|-0--|----|

riff 2
e|-----------------------------------------------------------|-----------|
B|-----------------------------------------------------------|-----------|
G|-----------------------------------------------------------|-----------|
D|-----------------------------------------------------------|-----------|
A|-----------------------------------------------------------|--15~------|
E|--000-12-12-12-000-15-15-15-000-14-14-14-000-13-13-13-000--|-----------|

riff 3
e|---------------------------------------------|
B|---------------------------------------------|
G|---------------------------------------------|
D|----------12--------------12-----------------|
A|----------10----------10------12-------------|
E|---00000-------00000-------------------------|

riff 4
e|---------------------------------------------|
B|---------------------------------------------|
G|---------------------------------------------|
D|---------------------------------------------|
A|-2-2-2---------------------5~----------------|
E|-------0----0-2-3-0-2-3-0--------------------|

riff 4b
e|--------------------------------------------------|
B|--------------------------------------------------|
G|--------------------------------------------------|
D|--------------------------------------------------|
A|-22222------------------------5-------------------|
E|--------00000--0-2-3-0-2-3-0----------------------|

last riff
e|--------------------------------------------|
B|--------------------------------------------|
G|--------------------------------------------|
D|--------------------------------------------|
A|--3333-5555---------------------------------|
E|-------------0--0-3-0~----------------------|
                  x x

| /  slide up
| \  slide down
| h  hammer-on
| p  pull-off
| ~  vibrato
| +  harmonic
| x  Mute note