Ashlee Simpson - Invisible Text Guitar Tab

Learn song with the online tabulature player
hi ..this is my first tab..hope u like it..any corrections welcomed
tabbed by:Fawad Shahid



w/distortion
e------2--------|---------------------|-------------|---------------|
b------3--------|---------------------|-------------|---------------|
G------2--------|---------------------|-------------|---------------|


b--x-x-7-7-7-x-x--7h8-5----------------x-x-5-5-5-x-x-5h7-3
Like a grain on the beach ,,Like a star in the sky 


b--x-x-7-7-7-x-x-7h8-5---x-x-5-5-5-x-x-5h7-5-3
Far too many to count with the naked eye 


e------2--------|---------------------|-------------|---------------|
b------3--------|---------------------|-------------|---------------|
G------2--------|---------------------|-------------|---------------|
D---------------|--x---x----5s7-------|-------------|---------------|
A---------------|--x---x----5s7-------|-------------|---------------|
E---------------|--x---x----3s5-------|-------------|---------------|
 They won’t see you 



CHORUS
e---------------|----------------|
b---------------|----------------|
G---------------|----------------|
D------7--------|----------------|
A------7--------|----------------|
E------5--------|----------------|
You’re the one who looked right through me
 
e---------------|----------------|
b---------------|----------------|
G---------------|----------------|
D------5--------|----------------|
A------5--------|----------------|
E------3--------|----------------|
Now you’re saying that you knew me 

e---------------|-----------------|
b---------------|-----------------|
G---------------|-----------------|
D------7--------|---------5-------|
A------7--------|---------5-------|
E------5--------|---------3-------|

When I was invisible 


thts how the song goes on...