Asian Dub Foundation - Free Satpal Ram Text Guitar Tab

Learn the song with the online tablature player
chorus/intro

G:------------------------------------------------------------------------
D:------------------------------------------------------------------------
A:-------------------------------------99999999-12-12-12-12-12-12-12-12---
E:----88888888-11-11-11-11-11-11-11-11------------------------------------

verse

G:-----------------------
D:----------------02-----
A:----02-02-02-02--------
E:-----------------------