Assorted Jelly Beans - Another Way Text Guitar Tab

Learn the song with the online tablature player
This is 100% correct. just listin to the song to get the timing.

Play this part 2x
g-------------------------------------------------------------------|
d-------------------------------------------------------------------|
a--------5-5-5-----------3-3-3--------------------------------------|
e--3-3-----------3-3------------------------------------------------|

Play this part 4x
g-------------------------------------------------------------------|
d-------------------------------------------------------------------|
a------------5-5-5-5-------------------3-3--------------------------|
e--3-3-3-3------------5-5-5-5----1-1--------------------------------|

Play this part 2x
g-------------------------------------------------------------------|
d-------------------------------------------------------------------|
a-----------5-5-5-5---7-7-7-7---3-3-3-3-----------------------------|
e--3-3-3-3----------------------------------------------------------|

Play this part 2x
g-------------------------------------------------------------------|
d-------------------------------------------------------------------|
a----------5-5-5---3--3--3---5--5--5--------------------------------|
e---3-3-3-----------------------------------------------------------|

Play this part 2x
g-------------------------------------------------------------------|
d------------------------------5-5-5--------------------------------|
a-------------5-5-5-5---7-7-7---------------------------------------|
e---3-3-3-3---------------------------------------------------------|

Play this part 4x
g-------------------------------------------------------------------|
d-------------------------------------------------------------------|
a------------5-5-5-5-------------------3-3--------------------------|
e--3-3-3-3------------5-5-5-5----1-1--------------------------------|

Play this part 2x
g-------------------------------------------------------------------|
d-------------------------------------------------------------------|
a-----------5-5-5-5---7-7-7-7---3-3-3-3-----------------------------|
e--3-3-3-3----------------------------------------------------------|

Play this part 2x
g-------------------------------------------------------------------|
d-------------------------------------------------------------------|
a----------5-5-5---3--3--3---5--5--5--------------------------------|
e---3-3-3-----------------------------------------------------------|

Play this part 2x
g-------------------------------------------------------------------|
d------------------------------5-5-5--------------------------------|
a-------------5-5-5-5---7-7-7---------------------------------------|
e---3-3-3-3---------------------------------------------------------|

Play this part 2x
g-------------------------------------------------------------------|
d-------------------------------------------------------------------|
a--------5----3-----------------------------------------------------|
e---3---------------------------------------------------------------|

Play this part 2x
g--12--12--14--12--11-----------------------------------------------|
d----------------------12--12--14--14--12---------------------------|
a-------------------------------------------------------------------|
e-------------------------------------------------------------------|

Play this part 4x
g-------------------------------------------------------------------|
d-------------------------------------------------------------------|
a------------5-5-5-5-------------------3-3--------------------------|
e--3-3-3-3------------5-5-5-5----1-1--------------------------------|

Play this part 2x
g-------------------------------------------------------------------|
d-------------------------------------------------------------------|
a-----------5-5-5-5---7-7-7-7---3-3-3-3-----------------------------|
e--3-3-3-3----------------------------------------------------------|

Play this part 2x
g-------------------------------------------------------------------|
d-------------------------------------------------------------------|
a----------5-5-5---3--3--3---5--5--5--------------------------------|
e---3-3-3-----------------------------------------------------------|

Play this part 2x
g-------------------------------------------------------------------|
d------------------------------5-5-5--------------------------------|
a-------------5-5-5-5---7-7-7---------------------------------------|
e---3-3-3-3---------------------------------------------------------|

g-------------------------------------------------------------------|
d-------------------------------------------------------------------|
a-------------------------------------------------------------------|
e---3~-------3------------------------------------------------------|

END