Assorted Jelly Beans - In Our Eyes Text Guitar Tab

Learn the song with the online tablature player
First part:
G:-------------------------------------------/--------------------
D:-------------------------------------------/--------------------
A:---4-5-7--6-7-9--7-6-7-6-7-6-4---/---------------------
E:-5--------7----------------------------7/---------------------------

Second Part:

G:-------------------------------------------------------------------------/--
D:-------6-7-9-----------------------------------------9-7-6----------/

A:-777--------------6-7-9----4-5-7-----6-7-9--7---------9-7-6--/--------------
-
E:---------------777---------5----------7----------------------------9/-