Ataris - Blind And Unkind Text Guitar Tab

Learn the song with the online tablature player
the Ataris - Blind And Unkind (Anywhere But Here)
this ones not too bad, pretty easy if you ask me. but aren't they all? :)
(scroll down for rhythm)

KEY to tab:
% = pause
* = play about 5x
~ = let ring
x = scratch/left hand mute
ps\\ = pickslide
/ = slide up
\ = slide down

**RHYTHM GUITAR**
main part (8x)
e-------------|
B-------------|
G----6*-8*-9*-|
D-9*-6--8--9--|
A-9--4--6--7--|
E-7-----------|
chorus "Why must I..."
e-------------------------------------------------------------------------|
B-------------------------------------------------------------------------|
G----------9999-------------9999-1111----------9999-----------------------|
D-66666666-9999-99-66666666-9999-1111-66666666-9999-99-66666666-444444444-|
A-66666666-7777-99-66666666-7777--9-9-66666666-7777-99-66666666-444444444-|
E-44444444------77-44444444-----------44444444------77-44444444-222222222-|
repeat main (2x)
"I undo the..."
e----------------------(x2)--------------------(x2)-|
B---------------------------------------------------|
G-4#-4/6#-6/8#-8/9#-9\8----4~-4/6~-6/8~-8/9~-9\-----|
D-4--4/6--6/8--8/9--9\8----4--4/6--6/8--8/9--9\-----|
A-2--2/4--4/6--6/7--7\6----2--2/4--4/6--6/7--7\-----|
E---------------------------------------------------|
repeat chorus
repeat main (2x)
ending
e---
B---
G-4-
D-4-
A-2-
E---