Ataris - How I Spent My Summer Vacation Text Guitar Tab

Learn the song with the online tablature player
HOW I SPENT MY SUMMER VACATION - The Ataris

Chords used:           F#    G     A     D     B
                 e-------------------------------|
                 B-------------------------------|
                 G-----------------------7-----4-|
                 D-----4-----5-----7-----7-----4-|
                 A-----4-----5-----7-----5-----2-|
                 E-----2-----3-----5-------------|

INTRO
2X, Strum

     e-----------------------------|
     B-----------------------------|
     G-77777777--------------------|
     D-77777777-44444444-5555-7777-|
     A-55555555-44444444-5555-7777-|
     E----------22222222-3333-5555-|

VERSE 1
2X, Strum

     e-------------------------------------|
     B-------------------------------------|
     G-77777777----------------------------|
     D-77777777-44444444-55555555-77777777-|
     A-55555555-44444444-55555555-77777777-|
     E----------22222222-33333333-55555555-|

"Got out of bed today..."

PRE-CHOURS: 2X, palm mute 2x on first hit then, hit and let ring on the B, F#, and G. Then strum the A

     e----------------------|
     B----------------------|
     G-44-------------------|
     D-44----44----55----77-|
     A-22----44----55----77-|
     E-------22----33----55-|
    P.M/ring.......    Strum

"I was sick of feeling down..."

CHOURS: 1X, Strum

 e------------------------------------------------------------------------|
 B------------------------------------------------------------------------|
 G-----------4444----------------7777----------------44-------------------|
 D-5555-7777-4444-7777-5555-7777-7777-7777-5555-7777-44-55-7777-5555-7777-|
 A-5555-7777-2222-7777-5555-7777-5555-7777-5555-7777-22-55-7777-5555-7777-|
 E-3333-5555------5555-3333-5555------5555-3333-5555----33-5555-3333-5555-|

"And I'm still waiting for the world to come crashing down again..."

INTRO
2X, Strum

     e-----------------------------|
     B-----------------------------|
     G-77777777--------------------|
     D-77777777-44444444-5555-7777-|
     A-55555555-44444444-5555-7777-|
     E----------22222222-3333-5555-|

VERSE 2
2X, Strum

     e-------------------------------------|
     B-------------------------------------|
     G-77777777----------------------------|
     D-77777777-44444444-55555555-77777777-|
     A-55555555-44444444-55555555-77777777-|
     E----------22222222-33333333-55555555-|

"You make me smile so wide when I look into your eyes..."

REPEAT PRE-CHOURS & CHOURS

OUTRO
4X, Strum

     e-------------------------------------|
     B-------------------------------------|
     G-77777777----------------------------|
     D-77777777-44444444-55555555-77777777-|
     A-55555555-44444444-55555555-77777777-|
     E----------22222222-33333333-55555555-|

END ON:
          e---
          B---
          G-7-
          D-7-
          A-5-
          E---