Athenaeum - What I Didnt Know Text Guitar Tab

Learn the song with the online tablature player
WHOA! Finally! after a year! i'm able to make a tab all by myself! Yahoo!
This is my very very first tab and I dedicate this to Rona. . . ahehehe! wag nya sanang makita to
buti na lang hindi sya nagigitara! ahehehe!!!

Im very annoyed because all the tabs of this song i saw in the internet are all incomplete! Peste!
Yan kaya gumawa na lang ako ng sarili! Please rate nyo na lang kung ayos mga chong!

/ = slide
^ = bend up

Intro

|--------2-----------2-----------2-----4--2--0------------------|
|----------4-----------4-----------4------------4-2-------------|
|--33/4------0-33/4------0-33/4------0--------------------------|
|---------------------------------------------------------------| 2x
|--22/3--------22/3--------22/3---------------------------------|
|---------------------------------------------------------------|

Verse
|-----------------------------------|
|-----------------------------------|
|--444--44--------------------------|
|--444--44--666--66--444--222--2222-| 2x
|--222--22--666--66--444--222--2222-|
|-----------444--44--222------------|

Pre Chorus:
|------------------------------------------2--------------------|
|--------4--2--0-------4--2--0-------4--2-----------------0-----|
|------4--0--0-------4--0--0-------4--0--0-------4-3^---4-------|
|----4-------------4-------------4-------------4------4---------| 2x
|--2------------------------------------------------------------|
|----------------2-------------4-------------0------------------|

Chorus
|-----------------------------------|
|-----------------------------------|
|--444--44--------------------------|
|--444--44--666--66--444--222--2222-| 2x
|--222--22--666--66--444--222--2222-|
|-----------444--44--222------------|

|--------2-----------2-----------2-----4--2--0------------------|
|----------4-----------4-----------4------------4-2-------------|
|--33/4------0-33/4------0-33/4------0--------------------------|
|---------------------------------------------------------------|
|--22/3--------22/3--------22/3---------------------------------|
|---------------------------------------------------------------|

Verse 2
|-----------------------------------|
|-----------------------------------|
|--444--44--------------------------|
|--444--44--666--66--444--222--2222-| 2x
|--222--22--666--66--444--222--2222-|
|-----------444--44--222------------|

Pre Chorus:
|------------------------------------------2--------------------|
|--------4--2--0-------4--2--0-------4--2-----------------0-----|
|------4--0--0-------4--0--0-------4--0--0-------4-3^---4-------|
|----4-------------4-------------4-------------4------4---------| 2x
|--2------------------------------------------------------------|
|----------------2-------------4-------------0------------------|

Chorus
|-----------------------------------|
|-----------------------------------|
|--444--44--------------------------|
|--444--44--666--66--444--222--2222-| 2x
|--222--22--666--66--444--222--2222-|
|-----------444--44--222------------|

|--------2-----------2-----------2-----4--2--0------------------|
|----------4-----------4-----------4------------4-2-------------|
|--33/4------0-33/4------0-33/4------0--------------------------|
|---------------------------------------------------------------|
|--22/3--------22/3--------22/3---------------------------------|
|---------------------------------------------------------------|

Instrumental
[saka ko na lang kakapain :) ]

Bridge

|-----------------------------------------------------------------------------------------|
|-------------------------------------0---0-----------------------------------------------|
|-4---------------------------------3---3------4------------------------------------------|
|-4---------4---------6-----------2------------4---------4---------666666662222222--------|
|-2---------4---------6---------2--------------2---------4---------666666662222222--------|
|-----------2---------4----------------------------------2---------44444444---------------|

|--------2-----------2-----------2-----4--2--0------------------|
|----------4-----------4-----------4------------4-2-------------|
|--33/4------0-33/4------0-33/4------0--------------------------|
|---------------------------------------------------------------|
|--22/3--------22/3--------22/3---------------------------------|
|---------------------------------------------------------------|

Chorus
|-----------------------------------|
|-----------------------------------|
|--444--44--------------------------|
|--444--44--666--66--444--222--2222-| 2x
|--222--22--666--66--444--222--2222-|
|-----------444--44--222------------|

|--------2-----------2-----------2-----4--2--0------------------|
|----------4-----------4-----------4------------4-2-------------|
|--33/4------0-33/4------0-33/4------0--------------------------|
|---------------------------------------------------------------| 2x
|--22/3--------22/3--------22/3---------------------------------|
|---------------------------------------------------------------|

End with:
|--x--|
|--x--|
|--4--|
|--4--|
|--2--|
|--0--|