Atomic Bitchwax - Stork Theme Text Guitar Tab

Learn the song with the online tablature player
e|---------|
B|---------|
G|---------|
D|--5-5-5--|
A|--5-5-5--|
E|--3-3-3--|

E|---------------------------------|
B|---------------------------------|
G|---------------------------------|
D|--0-12-10------------------------| x4
A|----------12-11-10-8--8--8--8----|
E|--------------------10-10-10-----|

e|----------------|
B|----------------|
G|----------------|
D|--5-5-5--5-5-5--|
A|--5-5-5--5-5-5--|
E|--3-3-3--3-3-3--|

E|-----------------------------------|
B|-----------------------------------|
G|-----------------------------------|
D|--0-12-10--------------------------| x4
A|----------12-11-10-8--8--8--8------|
E|--------------------10-10-10-------|

e|----------------|
B|----------------|
G|----------------|
D|--7-7-7--5-5-5--|
A|--7-7-7--5-5-5--|
E|--5-5-5--3-3-3--|

Whole song like this. Played an improvisation solo.