Au Revoir Simone - Lucky One Text Guitar Tab

Learn song with the online tabulature player
Band - Au Revoir Simone
Song - The Lucky One
Album - The Bird of Music
Track - 1
Bassist - Unknown


Bass in at 1:18
G-----------------------------|
D-----------------------------|
A-3------3------3------3------|
E-----------------------------| x1

G-----------------------------|
D-----------------------------|
A-0------0------0------0------|
E-----------------------------| x1

G-----------------------------|
D-----------------------------|
A-----------------------------|
E-3------3------3------3------| x1

G-----------------------------|
D-----------------------------|
A-----------------------------|
E-1------1------1------1------| x1

1:41
G-----------------------------|
D-----------------------------|
A-3------3------3------3-5-7--|
E-----------------------------| x1

G-----------------------------|
D-----------------------------|
A-0------0------0------0------|
E-----------------------------| x1

G-----------------------------|
D-----------------------------|
A-----------------------------|
E-3------3------3------3------| x1

G-----------------------------|
D----------------------3------|
A-----------------------------|
E-1------1------1-------------| x1

2:05
G-----------------------------|
D-----------------------------|
A-3------3------3------3-5-7--|
E-----------------------------| x1

G-----------------------------|
D-----------------------------|
A-0------0------0------0------|
E-----------------------------| x1

G-----------------------------|
D-----------------------------|
A-----------------------------|
E-3------3------3------3-5-7--| x1

G-----------------------------|
D-----------------------------|
A-----------------------------|
E-1------1------1------1------| x1

2:29
G-----------------------------|
D-----------------------------|
A-3~~~~~-5~~~~~-7~~~~~-5~~~~~-|
E-----------------------------| x3

G-----------------------------|
D-----------------------------|
A-5~~~~~-7~~~~~-5~~~~~-7~~~~~-|
E-----------------------------| x1

3:16
G-------------------------------|
D-10-----12-----14-----12-------|
A-------------------------------|
E----8~~----10~~---12~~---10~~--| x1

G-------------------------------|
D-12-----14-----12-----14-------|
A-------------------------------|
E----10~~---12~~---10~~---12~~--| x1

G-------------------------------|
D-10-----12-----14-----12-------|
A-------------------------------|
E----8~~----10~~---12~~---10~~--| x1

G-------------------------------|
D-12-----14-----12-----14-------|
A-------------------------------|
E----10~~---12~~---10~~---12~~--| x1

G-----------------------------|
D-12~~~~----------------------|
A-----------------------------|
E-----------------------------| x1