Australian Crawl - Shutdown Text Guitar Tab

Learn the song with the online tablature player
AUSTRALIAN CRWAL - "Shutdown" - Bass Tab

INTRO/CHORUS:
|--------------|-------------|-------------|------------|
|*-------------|-------------|-------------|-----------*|
|*-4-r-4---r-4-|-0-r-0---r-0-|-2-r-2---r-0-|-2-r-2---r-*|
|--------------|-------------|-------------|------------|
   1 2 & 3 4 &   1 2 & 3 4 &   1 2 & 3 4 &   1 2 & 3 4

VERSE
|--------------|-------------|---------------|--------------|
|*-------------|-------------|---------------|-------------*|
|*-4-r-4---r-4-|-0-r-0---r-0-|-2-r-----------|-2-----------*|
|--------------|-------------|-----2---0-2-2-|-------4-4-2--|
   1 2 & 3 4 &   1 2 & 3 4 &   1 2 & 3 & 4 &   1 2 & 3 & 4

SOLO/END:
|----------------|-----------------|-----------------|
|*---------------|-----------------|-----------------|
|*-0---0-0-0-0-0-|-2-2-2-2-2-2-2-2-|-4-4-4-4-4-4-4-4-|
|----------------|-----------------|-----------------|
   1 2 & 3 & 4 &   1 & 2 & 3 & 4 &   1 & 2 & 3 & 4 &

|------------------|
|-----------------*|
|-4-4-4-4-7-7-6-6-*|
|------------------|
  1 & 2 & 3 & 4 &