Autopilot Off - Something For Everyone Text Guitar Tab

Learn the song with the online tablature player
Since they Rhythm of the song is pretty easy you should be
able to figure out when and how much you need to strum.

(Power)chords used by guitar 1:
E = x-7-9-9-x-x----|
B = 7-9-9-x-x-x----|
Db = 9-11-11-x-x-x-|
A = 5-7-7-x-x-x----|
F# = 2-4-4-x-x-x---|

The tabs:

Guitar 1: Starts with playing E
As soon as the drums join, it changes to: E B Db A  (~7 times)

Guitar 2 riff:
(starts at 0:35)
play this two times:
e|--------------------|--------------------|--------------------|
B|--------------------|--------------------|--------------------|
G|--------9--------9--|--------9--------9--|--9--8-----9--8-----|
D|-----9--------9-----|-----9--------9-----|--------9--------9--|
A|--7--------7--------|--7--------7--------|--------------------|
E|--------------------|--------------------|--------------------|

Ends with:
|--------------------|--------------------|
|--------------------|--------------------|
|--------9--------9--|--------9--------9--|
|-----9--------9-----|-----9--------9-----|
|--7--------7--------|--7--------7--------|
|--------------------|--------------------|

(0:52)
Verse 1
E
My pain is never ending,
B
I feel it grow inside.
Db
Frustration overwhelms me
A
there's no place left to hide.

E
My mind is always racing.
B
These things can't stay the same.
Db
I want to see the difference,
A                  B
I want to see the change.

Chorus 1
E                    Db
I'm standing outside for you to decide,
A                   B
but I don't want to wait.
E                    Db
And I tried to be strong as we went along,
(pm B)
and you said nothing changed.

E
So what's left to believe?
Db                            A               B
I'm not going to leave, there's nothing left to say.
E                         Db
Don't say you were blind because I never lied.
F#                  B
I'm just hoping now that you'll remember me.

E B Db A

Verse 2
E
You know just what you're doing,
B
because you do it oh so well.
Db
And maybe you tried to fool me,
A
but I never fooled myself.

E
Your story is always changing,
B
but things still stay the same.
Db
And sometimes I long to see you,
A                  B
and sometimes I stay away.

Chorus 2
E                    Db
I'm standing outside for you to decide,
A                   B
but I don't want to wait.
E                    Db
And I tried to be strong as we went along,
(pm B)
and you said nothing changed.

E
So what's left to believe?
Db                            A               B
I'm not going to leave, there's nothing left to say.
E                         Db
Don't say you were blind because I never lied.
F#                  B                                   E
I'm just hoping now that you'll remember me.

Next play this scheme, each note is played multiple times
e|-----------------------|-----------------------|
B|-----------------------|-----------------------|
G|-----------------------|-----------------------|
D|-----------------------|-----------------------|
A|--7--6--7--9--7--6-----|--7--6--7--9--7--6-----|
E|--------------------9--|--------------------9/-|
                                                        quick slide

Guitar 1 plays:
E B Db A
PM: E B Db A,  B (Last B is not palmmuted)
At the same time Guitar 2 plays the riff from the intro.

Chorus 3
E                    Db
I'm standing outside for you to decide,
A                   B
but I don't want to wait.
E                    Db
And I tried to be strong as we went along,
(pm B)
and you said nothing changed.

E
So what's left to believe?
Db                            A               B
I'm not going to leave, there's nothing left to say.
E                         Db
Don't say you were blind because I never lied.
F#                  B                           E
I'm just hoping now that you'll remember me.