Avail - Hang Text Guitar Tab

Learn the song with the online tablature player
INTRO + VERSE
G:---------------------------------------------------
D:---------------------------------------------------
A:--44444444--------------44444444-------------------
E:----------------55555555------------44444444-------

G:---------------------------------------------------
D:---------------------------4444--6666--99999-------
A:-44444444------------------------------------------
E:--------------55555555-----------------------------

CHORUS x 2
G:-------------------------------------------------------------------Then play
D:-------------------------------------------------------------------this
A:-77777777---------------555-------555------------------------------
E:--------------77777777-------555------555-----------------77777777-

VERSE
CHORUS

BRIDGE
G:--666-888-99-11-11-11-9998--------888-99-11-11-11-99-8---------------
D:---------------------------------9-777-----------------------------9-
A:---------------------------------------------------------------------
E:---------------------------------------------------------------------

Then This
G:------------------------------------------------------
D:------------------------------------------------------
A:-44444444-------------44444444------------------------
E:---------------55555555-------------44444444----------

G:------------------------------------------------------
D:------------------------------------------------------
A:-77777777---------------555--------------------------- x 2
E:----------------77777777------555---------------------

CHORUS

ENDING
G:----------6---------------------------------
D:------6-----6-------------------------------
A:--4------------4----------------------------
E:--------------------------------------------