Avalanche City - Love Love Love Text Guitar Tab

Learn song with the online tabulature player
This is how we play it in our band,
the bass in the chours is differnt then
to what they play cause it brings
 the song along a bit better :)
So the tab is for the bass and the chords are for the guitar.
 This is ma first tab so dont judge please :)
You dont need a capo for this :)

Intro: G (Guitar) bass comes in just before the singing starts.

Verse: (Tab)
          x4           Last round of verse
G|------------------|-----------------------------------------|
D|------------------|-----------------------------------------|
A|----------3-------|----------3-------5----------------------|
E|3----0---------3--|3----0---------3-------------------------|
  G     Em
  Girl i say if only
C                    G
life would lean our way
     G                Em
well you and me we'd run away to be
C                         G
where ever our adventure waits
G                   Em
and time would be a distant memory
C                        G
nobody could tell us to stay
G                      Em
well ive been dreaming ever since ive seen you
C                        G D
heaven when you came my way

CHOURS

G|-------------------|----------------------------|
D|-----2-------4-----|-----2-------4-------4------|
A|-2-3-----2-5----x3-|-2-3-----2-5---5---5---5----|
E|0------3-----------|0------3---------5-------5--|
Em           C          G           D
I heard your heart sing love love love x4

verse 2 is the same

Chorus (same)

Bridge

G|--------------------------------------------------|
D|--------------------------------------------------|
A|-----3---------5----------------------------------| x2
E|0---------3---------------------------------------|
Am          C              D
And all the life about to go
D
is in my mind
Am                  C                D
and all the loudest voice in the world
D
are never right

CHOURS