Avril Lavigne - Remember When Text Guitar Tab

Learn the song with the online tablature player
The solo part is after the 2nd Chorus part
You will hear something like this While Avril sings the Bridge

e|------------8h12------------------17--15------------12-------|
B|---------10------10----------13-----------15--13-15----15-13-|
G|------10------------10-------14------------------------------|
D|---10------------------10------------------------------------|
A|-8------------------------8----------------------------------|
E|-------------------------------------------------------------|

e|------17--15-----------12-------|
B|-13----------15--13-15----15-13-|
G|-14-----------------------------|
D|--------------------------------|
A|--------------------------------|
E|--------------------------------|

e|-12---13---12--10--|
B|-13---13---13--12--|
G|-------------------|
D|-------------------|
A|-------------------|
E|-------------------|

e|------17--15--------15----15----15----15-19-20-|
B|-13----------15--13----13----13----13----------|
G|-14--------------------------------------------|
D|-----------------------------------------------|
A|-----------------------------------------------|
E|-----------------------------------------------|