B.B. King - The Thrill Is Gone Text Guitar Tab

Learn the song with the online tablature player
First Tab EVER! :D The notes are all there just play around whilst listening to
the song. Feel the blues man. Once this is mastered you can do your self a bit of
;-).

G |------------------------------------------------------|
D |------------------------------------------------------|
A |-2----------0-1-2-2-----------0-1-2-2--------0-1-2-2--|
E |------0-2-2-------------0-2-2----------0-2-2----------|

G |------------------------------------------------------|
D |------------0-1-2-2--------0-1-2-2-------0------------|
A |--------------------0-2-2----------0-2-2-----4-2-2----|
E |-0-2-2--------------------------------------------0---|

G |------------------------------------------------------|
D |---------------------------5-5--0-5-5-0--4-4---4-4----|
A |-----0-1-2------------0-1--------------------4--------|
E |-2-2-------0-2-2----2---------------------------------|

G |------------------------------------------------------|
D |------------------------------------------------------|
A |-0-1-2-2-------0-1-2-2--------------------------------|
E |---------0-2-2---------0-2-2--------------------------|