Babes In Toyland - Bruise Violet Text Guitar Tab

Learn the song with the online tablature player
Bruise Violet - Babes In Toyland

Intro/Chorus
e|-----------------------|
b|-----------------------|
g|-----------------------|
d|-----------------------|
a|--11--10--10--9--7--5--|
E|---9---9---8--7--5--3--|

Verse
e|--------|
b|--------|
g|--------|
d|--2--5--|
a|--2--5--|
E|--0--3--|

e|------------------|--------------|
b|------------------|--------------|
g|-----4--4--4--4b--|--------------|
d|--4---------------|--4--5--6--7--|
a|--4---------------|--4--5--6--7--|
E|--2---------------|--2--3--4--5--|

Outro
e|--------------------------|
b|--------------------------|
g|--------------------------|
d|--------------------------|
a|--11--10--10--9--7--5--2--|
E|---9---9---8--7--5--3--0--|