Babyshambles - Sticks And Stones Text Guitar Tab

Learn song with the online tabulature player
Intro

Bm, G, E, F#m 

louder bit

e----------------|
b----------------|
g----------------|
d----------------|
a----------------|
E-8-10---3-2-7---|

The verse is simple reggae, play the below chords
e-3
b-5
g-4  x6 (Em)
d-5
a-x
E-x

and

e-7
b-7
g-7
d-9  x6 (Bm)
a-x
E-x



then more of the verse chords, followed by the main riff below

e-15----------------------------------------14------|
b------17-----------------------------15------------|
g-----------16----14---16-16-16---------------------|
d---------------------------------------------------|
a---------------------------------------------------|
E---------------------------------------------------|


then twice in the song, including the outro there is a breakdown

e----------------------------------------------------------------------|
b----------------------------------------------------------------------|
g---------------------------------------------------9-10-9-------------|
d----------------------------------------------------------10-9-10-10--|
a--7-7-7-7--5-5-5-5---3-3-3-3--2-2-2-2-----2-2-2-----------------------|
E----------------------------------------------------------------------|