Back Door Slam - Come Home Text Guitar Tab

Learn song with the online tabulature player
Back Door Slam - Come Home

This is just the main riff.  I'm not totally sure if it's right, this is just what 
best to me and how I play it.  I recommend fiddling with it until it sounds good to you, I've 
several slightly different versions.  Tuning is standard.

e|-------------------------------------|
B|----------------------------0--------|
G|-------------9--9-----3--2---3p2p0---|
D|----------------------2--1---------2-|
A|------5h7-0-------0h3-3--2-----------|
E|-0-0---------------------------------|

e|-------------------------------------|
B|-------------------------------------|
G|-------------9--9-----3--2-----------|
D|----------------------2--1-----------|
A|------5h7-0-------0h3-3--2-----------|
E|-0-0------------------------3b---0---|

Note on the 9th fret notes:   You can do 7th fret on A string instead, which is just an 
lower (which is what the bass does) or you could also do 9p7-9, which is something I 
do.

-----------------
h: hammer on
p: pull off
b: slight bend