Backfire - Still Dedicated Text Guitar Tab

Learn the song with the online tablature player
backfire- still dedicated

(intro)
|-----------------------------------
|-----------------------------------
|-----------------------------------
|-----------------------------------
|--2------------2-------------------
|--0------------0-------------------
(intro)
|-----------------------------------|
|-----------------------------------|
|-----------------------------------|
|-----5--7--9----------5--7--9------|
|--2--3--5--7-------2--3--5--7------|
|--0----------------0---------------|

|-----------------------------------|
|-----------------------------------|
|-----------------------------------|
|-----5--7--10--9-----5--7--10--9---|
|--2--3--5---8--7--2--3--5---8--7---|
|--0---------------0----------------| x2

chorus
|-----------------------------------|
|-----------------------------------|
|-----------------------------------|
|--9--7--5--4--5--7--10--9----------|
|--7--5--3--2--3--5---8--7----------|
|-----------------------------------| x4

|-----------------------------------|
|-----------------------------------|
|-----------------------------------|
|-----5--7--10--9-----5--7--10--9---|
|--2--3--5---8--7--2--3--5---8--7---|
|--0---------------0----------------| x2

chorus
|-----------------------------------|
|-----------------------------------|
|-----------------------------------|
|--9--7--5--4--5--7--10--9----------|
|--7--5--3--2--3--5---8--7----------|
|-----------------------------------| x4

|-----------------------------------|
|-----------------------------------|
|-----------------------------------|
|-----5--7--9----------5--7--9------|
|--2--3--5--7-------2--3--5--7------|
|--0----------------0---------------| x2

BACKFIRE!

|-----------------------------------|
|-----------------------------------|
|-----------------------------------|
|-----5--7--10--9-----5--7--10--9---|
|--2--3--5---8--7--2--3--5---8--7---|
|--0---------------0----------------| x2