Bad Astronaut - Anecdote Text Guitar Tab

Learn the song with the online tablature player
Key:

/ = Slide Down
\ = Slide Up
* = Sustain (hold the note)
> = Play many times

Intro

G|---------------------------------|
D|---------------------------------|
A|---2-3-----2-3-2---2-3-0-0-2-3---|
E|-1-----3-3-------0-------------3-|

G|---------------------------------|
D|---------------------------------|
A|-----3-3--------2-3-----2-3-2----|
E|-1-1-----3-3--1-----3-3-------/1-|

G|-----------------------------------|
D|-----------------------------------|
A|-----3-3-----2-2-----2-2-3-3-0-0---|
E|-1-1-----3-3-----0-0-------------3-|

Verse

G|-------------|
D|-------------|
A|-3*-1*-------| #A Thousand Indecisions Launched...
E|-------1*-3*-|

G|-------------------------|
D|-------0>-2>-------------|
A|-0>-3>-------3-3-1-1-----| #I Desire Stop Motion Sickness...
E|---------------------1/0-|

G|-------------|
D|-------------|
A|-3>-1>-------| #A Thousand Insecurities...
E|-------1>-3>-|

G|-------------------------------|
D|-------0>-2>-------------------|
A|-0>-3>-------3-3-1-1-\5/2-0----| #I'm Enamored By Your Smile...
E|-------------------------------|

G|------------------------------------------------|
D|---------------------------------------3--------|
A|-----2-3-3-----2-3-3-----2-3-3-----2-3---2-3----|
E|-1-1-------3-3-------1-1-------3-3-----------1*-|

*No Bass During "#I Almost Died..." Part*

G|-------0-1-----------------|
D|-5-3-2-----2-0-------------|
A|---------------3-4-4-2-2---| #Lay My Leery Head On Your Chest...
E|-------------------------2-|

Ending

G|---------------------|-|
D|---------------------|3|
A|-----2-3-3-----2-3-3-|-|
E|-1-1-------3-3-------|-|