Bad Astronaut - Grey Suits Text Guitar Tab

Learn the song with the online tablature player
Song: Grey Suits
Band: Bad Astronaut
Album: Acrophobe

Chords used
e|---------------------------|
b|---------------------------|
g|-----5--------7--9--10-----|
d|--3--5--5--7--7--9--10--6--|
a|--3--3--5--7--5--7---8--6--|
e|--1-----3--5------------4--|
    F  C  G  A  D  e   f  Ab

F                          C
Even grey suits have their day
                      G
all the promises they made
                            A
all the bad words you can't say
              C   D    e
you signed up now fake it
f
you signed up now make it
F                         C
you signed up now make us proud
                   G
the best is yet to come
                   A     CDe
the best is yet to come
f               D
seeing how they break you
A
be honest
F          C                  G   Ab
you want it nothing else will do
A
it's never enough for you
F
it's never enough for you
C                        G Ab
it's never enough for you
F                              C
and even grey suits have their way
                                G
all your friendships find their graves
                        A
in the lounge where you write

they are lost
C   D   e
and you are found
f
the weather's fair in the clouds
F                           C
you signed up now make them proud
                   G
the best is yet to come
                   A    CDe
the best is yet to come
f                       D                         A
the best is when you're falling from your throne

F  C  G  Ab

solo bg
A  F  C  G  Ab

solo
^- bend half step h-hammer on p-pull of /-slide
e|--------------------------------------------10--10-12-13-12-10h12p10-12^->
b|--9^--10-12-13-12-10-9/10--10-12-13-12-10-9------------------------------>
g|------------------------------------------------------------------------->
d|------------------------------------------------------------------------->
a|------------------------------------------------------------------------->
e|------------------------------------------------------------------------->

solo cont.
e|--10h12p10---------|
b|------------12-10--|
g|-------------------|
d|-------------------|
a|-------------------|
e|-------------------|

f, e, D, C x4

A
You Bought it
F
You Bought it
C            G Ab
You Bought it
A
Its never enough for you
F
Its never enough for you
C                        G Ab
Its never enough for you

f, e, D, C x4

end on A