Bad Astronaut - You Deserve This Text Guitar Tab

Learn the song with the online tablature player
Key:
> = Strum (play many times)
h = Hammer-On
p = Pull-Off
* = Sustain (let the note ring)
s = Slap

Intro

G|-------|
D|-------|
A|-------| x2
E|-3>-0>-|

Verse

G|--------------|  |-----------------------|
D|--------------|  |-----------------------|
A|-3>-0>----0h2-|x2|-3>-0>--------3>-0>----|
E|-------3>-----|  |-------3-2-0>-------3>-|

Bridge

G|------------------------------------------|
D|------------------------------------------|
A|-10>-9-7>-9-9-9-10>-----7>-5>-5h7-5-------|
E|--------------------10>-------------7p5-3-|

G|----------------|  |-------------|
D|--------------5-|  |-------------|
A|-3>-0>----3-5---|x2|-3>-5>-------|
E|-------3>-------|  |-------3-2-0-|

Chorus

G|-------|  |-------------------------|
D|-------|  |-------------------------|
A|-------|x2|-3>----------------3>-5>-|
E|-3>-0>-|  |----5>-3>-0>-3>-0>-------|

Outro
play whole outro x2)

G|---------------|  |-----------|
D|---------------|  |-----------|
A|-10>-9-10-9-7>-|x2|--------10-|
E|---------------|  |-8>-10>----|

Ending

G|---|
D|---|
A|---|
E|-3-|
   s