Bad Brains - Day Tripper Shes A Rainbow Text Guitar Tab

Learn the song with the online tablature player
Intro
G-|----------------------------------|-------------------------------|
D-|-------------4--2-----6-----2--4--|-------------------------------|
A-|----------4--------4-----4--------|-------------------------------|
E-|--2--2----------------------------|--2--2-------------------------|

G-|----------------------------------|-------------------------------|
D-|-------------4--2-----6-----2--4--|-------------------------------|
A-|----------4--------4-----4--------|-------------------------------|
E-|--2--2----------------------------|--2--2-------------------------|

Main Riff: With Variations
G-|----------------------------------|-----------------------------------|
D-|-------------4--2-----6-----2--4--|-------------4--2------------------|
A-|----------4--------4-----4--------|----------4--------4---2--2-2--4---|
E-|--2--2----------------------------|--2--2-----------------------------|

G-|----------------------------------|-----------------------------------|
D-|-------------4--2-----6-----2--4--|-------------4--2------------------|
A-|----------4--------4-----4--------|----------4---------------2-2--4---|
E-|--2--2----------------------------|--2--2-----------------------------|

please rate