Bad Brains - Leaving Babylon Text Guitar Tab

Learn the song with the online tablature player
D|---------------------------------------------------|
G|-3-----3---------------5----3-----3----------------|
A|-----5---5-3---------5----------5---5-3------------|
E|-------------5-0-3----------------------5-0-3--3-3-|

D|---------------------------------------------------|
G|-3-----3---------------5----3-----3----------------|
A|-----5---5-3---------5----------5---5-3------------|
E|-------------5-0-3----------------------5-0-3--3-3-|