Badfinger - Come And Get It Text Guitar Tab

Learn the song with the online tablature player
 THE IVEYS (BADFINGER) -  COME AND GET IT (Paul McCartney) Released
                          as a single by APPLE RECORDS on 5th December
                          1969 with ROCK OFALL AGES as the B side.

    This song was brought to the group by Paul McCartney who came to
    the rescue when MAYBE TOMORROW (album) was withdrawn in  England
    (Though it did it pretty well in Europe, mostly in Holland and
    Germany.)
    COME AND GET IT was also included in the film THE MAGIC CHRISTIAN
    , featuring Ringo and Peter Sellers and was a number 4 British hit
    single and a number 7 hit in the USA.

If you want it, here it is
Come and get it
MMMM Make your mind up fast.
If you want it, anytime
I can get it
But you better hurry cause it may not last.
Did I hear you say
That there must be a catch?
Will you walk away
From a fool and his money?
If you want it, here it is
Come and get it
But you better hurry 'cause it's goinn' fast.
If you want it, here it is
Come and get it
MMMM Make your mind up fast.
If you want it, anytime
I can get it
But you better hurry 'cause it may not last.
Did I hear you say
That there must be a catch?
Will you walk away
From a fool and his money?
Sonny...
If you want it, here it is
Come and get it
But you'd better hurry 'cause it may not last
You'd better hurry 'cause it may not last.
Ooooooo..fool and his money
Sonny..
If you want it, here it is
Come and get it
But you'd better hurry 'cause it's goin' fast
You'd better hurry 'cause it's goin' fast
You'd better hurry 'cause it'd goin' fast.

  4/4
                                                              x
                                  D
e|------- ------- ------- -------|2------ 2------ 2------ 2------|
B|-------------------------------|3-------3-------3-------3------|
G|-------------------------------|2-------2-------2-------2------|
D|-------------------------------|0---0---0---0---0---0---0---0--|
A|-------------------------------|-------------------------------|
E|-------------------------------|-------------------------------|

e|2------ 2------ 2------ 2------|2------ 2------ 2------ 2------|
B|3-------3-------3-------3------|3-------3-------3-------3------|
G|2-------2-------2-------2------|2-------2-------2-------2------|
D|0---0---0---0---0---0---0---0--|0---0---0---0---0---0---0---0--|
A|-------------------------------|-------------------------------|
E|-------------------------------|-------------------------------|
                          If  you want it,    here    it  is

                                  G6
e|2------ 2------ 2------ 2------|0------ 0------ 0------ 0------|
B|3-------3-------3-------3------|0-------0-------0-------0------|
G|2-------2-------2-------2------|0-------0-------0-------0------|
D|0---0---0---0---0---0---0---0--|-------------------------------|
A|-------------------------------|-------------------------------|
E|-------------------------------|3---3---3---3---3---3---3---3--|
  Come and get it     MMMMMMMMMMMMMMMM   Make your mind up    fast.

  A                               D
e|0------ 0---0-- 0------ 0------|2------ 2------ 2------ 2------|
B|2-------2---2---2-------2------|3-------3-------3-------3------|
G|2-------2---2---2-------2------|2-------2-------2-------2------|
D|2-------2---2---2-------2------|0---0---0---0---0---0---0---0--|
A|0---0---0---0---0---0---0---0--|-------------------------------|
E|-------------------------------|-------------------------------|
                          If  you want it,    anytime

                                  G6
e|2------ 2------ 2------ 2------|0---0-- 0---0-- 0------ 0------|
B|3-------3-------3-------3------|0---0---0---0---0-------0------|
G|2-------2-------2-------2------|0---0---0---0---0-------0------|
D|0---0---0---0---0---0---0---0--|-------------------------------|
A|-------------------------------|-------------------------------|
E|-------------------------------|3---3---3---3---3---3---3---3--|
  I  can  get it   But you better hurry   cause it may not    last.

  A                               Bb
e|0---0-- 0------ 0------ 0---0--|1------ 1------ 1------ 1------|
B|2---2---2-------2-------2---2--|3-------3-------3-------3------|
G|2---2---2-------2-------2---2--|3-------3-------3-------3------|
D|2---2---2-------2-------2---2--|3-------3-------3-------3------|
A|0---0---0---0---0---0---0---0--|1---1---1---1---1---1---1---1--|
E|-------------------------------|-------------------------------|
                                  Did  I  hear you say    that there

  Dm7                             Ebmaj7
e|1------ 1------ 1------ 1------|------- ------- ------- -------|
B|1-------1-------1-------1------|3-------3---3---3-------3------|
G|2-------2-------2-------2------|3-------3---3---3-------3------|
D|0---0---0---0---0---0---0---0--|5-------5---5---5-------5------|
A|-------------------------------|6---6---6---6---6---6---6---6--|
E|-------------------------------|-------------------------------|
  must be a  catch?              Will you walk away       From a

                                  7/8
  D           A                   A5
e|2------ ----0-- ------- -------|------- ------- ------- ----|
B|3-----------2------------------|----------------------------|
G|2-----------2------------------|2---2---2---2---2---2---2---|
D|0-----------2------------------|2---2---2---2---2---2---2---|
A|------------0------------------|0---0---0---0---0---0---0---|
E|----2---3----------------------|----------------------------|
  fool and his money?                                 If  you

  4/4
  D
e|2------ 2------ 2------ 2------|2------ 2------ 2------ 2------|
B|3-------3-------3-------3------|3-------3-------3-------3------|
G|2-------2-------2-------2------|2-------2-------2-------2------|
D|0---0---0---0---0---0---0---0--|0---0---0---0---0---0---0---0--|
A|-------------------------------|-------------------------------|
E|-------------------------------|-------------------------------|
  want it     here    it  is      Come and get it  But you better

  G6              A               D
e|0------ 0------ 0------ 0------|2---2-- 2---2-- 2---2-- 2---2--|
B|0-------0-------2-------2------|3---3---3---3---3---3---3---3--|
G|0-------0-------2-------2------|2---2---2---2---2---2---2---2--|
D|----------------2-------2------|0---0---0---0---0---0---0---0--|
A|----------------0---0---0---0--|-------------------------------|
E|3---3---3---3------------------|-------------------------------|
  hurry  'cause it's goinn'   fast.

      A                           D
e|2---0-- 0---0-- 0---0-- 0---0--|2------ 2---2-- 2---2-- 2------|
B|3---2---2---2---2---2---2---2--|3-------3---3---3---3---3------|
G|2---2---2---2---2---2---2---2--|2-------2---2---2---2---2------|
D|0---2---2---2---2---2---2---2--|0---0---0---0---0---0---0---0--|
A|----0---0---0---0---0---0---0--|-------------------------------|
E|-------------------------------|-------------------------------|
                          If  you want it,    here    it  is

                                  G6
e|2------ 2---2-- 2------ 2------|0------ 0------ 0------ 0------|
B|3-------3---3---3-------3------|0-------0-------0-------0------|
G|2-------2---2---2-------2------|0-------0-------0-------0------|
D|0---0---0---0---0---0---0---0--|-------------------------------|
A|-------------------------------|-------------------------------|
E|-------------------------------|3---3---3---3---3---3---3---3--|
  Come and get it     MMMMMMMMMMMMMMMM   Make your mind up    fast.

  A                               D
e|0---0-- 0------ 0---0-- 0------|2------ 2------ 2------ 2------|
B|2---2---2-------2---2---2------|3-------3-------3-------3------|
G|2---2---2-------2---2---2------|2-------2-------2-------2------|
D|2---2---2-------2---2---2------|0---0---0---0---0---0---0---0--|
A|0---0---0---0---0---0---0---0--|-------------------------------|
E|-------------------------------|-------------------------------|
                          If  you want it,    anytime

                                  G6
e|2---2-- 2------ 2------ 2------|0------ 0---0-- 0---0-- 0------|
B|3---3---3-------3-------3------|0-------0---0---0---0---0------|
G|2---2---2-------2-------2------|0-------0---0---0---0---0------|
D|0---0---0---0---0---0---0---0--|-------------------------------|
A|-------------------------------|-------------------------------|
E|-------------------------------|3---3---3---3---3---3---3---3--|
  I can   get it    But you better hurry 'cause it may not    last.

  A                               Bb
e|0------ 0------ 0------ 0------|1---1-- 1------ 1------ 1------|
B|2-------2-------2-------2------|3---3---3-------3-------3------|
G|2-------2-------2-------2------|3---3---3-------3-------3------|
D|2-------2-------2-------2------|3---3---3-------3-------3------|
A|0---0---0---0---0---0---0---0--|1---1---1---1---1---1---1---1--|
E|-------------------------------|-------------------------------|
                                  Did I  hear you say    that there

  Dm7                             Ebmaj7
e|1------ 1------ 1------ 1------|------- ------- ------- -------|
B|1-------1-------1-------1------|3-------3-------3-------3------|
G|2-------2-------2-------2------|3-------3-------3-------3------|
D|0---0---0---0---0---0---0---0--|5-------5-------5-------5------|
A|-------------------------------|6---6---6---6---6---6---6---6--|
E|-------------------------------|-------------------------------|
  must be a  catch?              Will you walk away       From a

                                                  X X   X X   X
  D           A
e|2------ ----0-- ------- -------|------- ------- ------- -------|
B|3-----------2------------------|-------------------------------|
G|2-----------2------------------|-------------------------------|
D|0-----------2------------------|-------------------------------|
A|------------0------------------|-------------------------------|
E|-------------------------------|-------------------------------|
  fool and his money?             Sonny...        If      you

  D
e|2------ 2---2-- 2------ 2---2--|2---2-- 2------ 2------ 2------|
B|3-------3---3---3-------3---3--|3---3---3-------3-------3------|
G|2-------2---2---2-------2---2--|2---2---2-------2-------2------|
D|0---0---0---0---0---0---0---0--|0---0---0---0---0---0---0---0--|
A|-------------------------------|-------------------------------|
E|-------------------------------|-------------------------------|
  want it     here    it  is      Come and get it  But you better

                                      X X   X X   X X   X X   X
  G6              A               D
e|0------ 0------ 0---0-- 0------|2------ 2---2-- 2------ 2------|
B|0-------0-------2---2---2------|3-------3---3---3-------3------|
G|0-------0-------2---2---2------|2-------2---2---2-------2------|
D|----------------2---2---2------|0---0---0---0---0---0---0---0--|
A|----------------0---0---0---0--|-------------------------------|
E|3---3---3---3------------------|-------------------------------|
  hurry  'cause it's goinn'   fast.                  You'd better

  G6              A               Bb
e|0---0-- 0------ 0---0-- 0------|1---1-- 1------ 1------ 1------|
B|0---0---0-------2---2---2------|3---3---3-------3-------3------|
G|0---0---0-------2---2---2------|3---3---3-------3-------3------|
D|----------------2---2---2------|3---3---3-------3-------3------|
A|----------------0---0---0---0--|1---1---1---1---1---1---1---1--|
E|3---3---3---3------------------|-------------------------------|
  hurry  'cause it may not    last.

                               (Slow down)
  Dm7                             Ebmaj7
e|1------ 1------ 1------ 1------|------- ------- ------- -------|
B|1-------1-------1-------1------|3-------3-------3-------3------|
G|2-------2-------2-------2------|3-------3-------3-------3------|
D|0---0---0---0---0---0---0---0--|5-------5-------5-------5------|
A|-------------------------------|6---6---6---6---6---6---6---6--|
E|-------------------------------|-------------------------------|
                                  Ooooooooooooooooooooooooooooooo

                  (.                            X X   X   X   X
  D               A
e|2------ ------- 0------ -------|------- ------- ------- -------|
B|3---------------2--------------|-------------------------------|
G|2---------------2--------------|-------------------------------|
D|0---------------2--------------|-------------------------------|
A|----------------0--------------|-------------------------------|
E|----2---3---4------------------|-------------------------------|
  fool and his money?             Sonny...        If      you

  D
e|2---2-- 2---2-- 2------ 2---2--|2------ 2------ 2------ 2------|
B|3---3---3---3---3-------3---3--|3-------3-------3-------3------|
G|2---2---2---2---2-------2---2--|2-------2-------2-------2------|
D|0---0---0---0---0---0---0---0--|0---0---0---0---0---0---0---0--|
A|-------------------------------|-------------------------------|
E|-------------------------------|-------------------------------|
  want it     here    it  is      Come and get it  But you better

  G6              A               D
e|0------ 0------ 0---0-- 0------|----2-- 2---2-- 2---2-- 2---2--|
B|0-------0-------2---2---2------|----3---3---3---3---3---3---3--|
G|0-------0-------2---2---2------|----2---2---2---2---2---2---2--|
D|----------------2---2---2------|0---0---0---0---0---0---0---0--|
A|----------------0---0---0---0--|-------------------------------|
E|3---3---3---3------------------|-------------------------------|
  hurry  'cause it's goinn'   fast.                   You'd better

  G6              A               D
e|0---0-- 0------ 0---0-- 0------|2------ 2------ 2------ 2------|
B|0---0---0-------2---2---2------|3-------3-------3-------3------|
G|0---0---0-------2---2---2------|2-------2-------2-------2------|
D|----------------2---2---2------|0---0---0---0---0---0---0---0--|
A|----------------0---0---0---0--|-------------------------------|
E|3---3---3---3------------------|-------------------------------|
  hurry  'cause it's goinn'   fast.                   You'd better

  G6              A               Bb
e|0---0-- 0------ 0------ 0------|1---1-- 1------ 1---1-- 1---1--|
B|0---0---0-------2-------2------|3---3---3-------3---3---3---3--|
G|0---0---0-------2-------2------|3---3---3-------3---3---3---3--|
D|----------------2-------2------|3---3---3-------3---3---3---3--|
A|----------------0---0---0---0--|1---1---1---1---1---1---1---1--|
E|3---3---3---3------------------|-------------------------------|
  hurry  'cause it's goinn'   fast.

                                 (.
                                  D
e|1------ ------- ------- -------|2------ ------- ------- -------|
B|3-------3-------3-------3------|3------------------------------|
G|3-------3-------3---0---2---3--|2------------------------------|
D|3---0---1---2---3-------3------|0------------------------------|
A|1------------------------------|-------------------------------|
E|-------------------------------|-------------------------------|

        B  Bend
        R  Release
        /  Slide up
        \  Slide down
        H  Hammer-on
        P  Pull-off
        ~  Vibrato
        +  Harmonic
        x  Mute note
        .  Play note like a dot in standard notation
        ^  Ties two notes together
        (. Pause