Bamboo - Alive Text Guitar Tab

Learn song with the online tabulature player
ALive By BAMBOO ... Im sure its Just Like The Original 1.. hehe!.. HI sA mGa RocKERs 
GeRRard (DonkiE), Oni (pisOT), Daniel(SherMAnaTor). hehe...Enjoy! Tnx UG!

Tabbed By: Ric Tobias
YM: Clinshen.klay@yahoo.com

Intro: A – E

e|--------------------5-----------|
B|-------2----------------3--0----|
G|-------2-----1------------------|
D|-------2-----2--—---------------| 2x
A|---0---------2---—--------------|
E|--------------------------------|

Verse 1: ( Verse A - E )

Son, she said have I got a little story for you.
What you thought was your daddy was nothing but a
While.. you were sitting home alone at age thirteen
Your real daddy was dying.

e|--------------------5-----------|
B|-------2----------------3--0----|
G|-------2-----1------------------|
D|-------2-----2--—---------------| 4x
A|---0---------2---—--------------|
E|--------------------------------|

Pre chorus:
                 F# - E
Sorry you didn't see him
                 F# - E
But I'm glad we talked."

e|-------------------------------|
B|-------------------------------|
G|--11----9----11---9------------|
D|--11----9----11--—9------------|
A|--9-----7----9-—--7------------|
E|-------------------------------|


Chorus :

Oh...oh, I'm still alive.
Hey, I...oh, I'm still alive.
Hey, I...oh, I'm still alive..

e|---------------------------|
B|---------------------------|
G|----9----12---7------------|
D|----9----12--—7---7--------| 3x
A|----7----10-—-5---7--------|
E|------------------5--------|


Hey. . .

e|---------------------------|
B|---------------------------|
G|---4~---8---9--------------|
D|---4~---8---9---—----------|
A|---2~---6—--7--------------|
E|---------------------------|


Verse 2:

Oh she walks slowly, across a young man's room
She said I'm ready. . .
Well I can't remember anything to this very day
Except the look.

e|--------------------5-----------|
B|-------2----------------3--0----|
G|-------2-----1------------------|
D|-------2-----2--—---------------| 4x
A|---0---------2---—--------------|
E|--------------------------------|

Pre chorus:
           F# - E
Oh you know where.
                      F# - E
Now I can't see I just stare

e|-------------------------------|
B|-------------------------------|
G|--11----9----11---9------------|
D|--11----9----11--—9------------|
A|--9-----7----9-—--7------------|
E|-------------------------------|

Chorus 2:

Oh...oh, I'm still alive.
Hey, I...oh, I'm still alive.
Hey, I...oh, I'm still alive..

e|---------------------------|
B|---------------------------|
G|----9----12---7------------|
D|----9----12--—7---7--------| 3x
A|----7----10-—-5---7--------|
E|------------------5--------|

Hey. . .

e|---------------------------|
B|---------------------------|
G|---4~---8---9--------------|
D|---4~---8---9---—----------|
A|---2~---6—--7--------------|
E|---------------------------|

Intrumental:

Hey. . .Yey. . .
e|---------------------------|
B|---------------------------|
G|---4~---8---11-------------|
D|---4~---8---11---—---------| 4x
A|---2~---6—--9--------------|
E|---------------------------|


Verse 3: ( Strumming A – E )

Is something wrong? she said.
Of course there is.
You're still alive she said.
Oh and do I deserve to be?
Is that the question?
And is so, if so, if so?
Who answers?

e|--------------------------------|
B|-------2------------------------|
G|-------2-----1------------------|
D|-------2-----2--—---------------|
A|-------------2---—--------------|
E|--------------------------------|

Last Chorus:

Oh...oh, I'm still alive.
Hey, I...oh, I'm still alive.
Hey, I...oh, I'm still alive..
Hey, hey.. oh..oh.. im still alive..4x

e|---------------------------|
B|---------------------------|
G|----9----12---7------------|
D|----9----12--—7---7--------| 7x
A|----7----10-—-5---7--------|
E|------------------5--------|