Bamboo - Masaya Text Guitar Tab

Learn the song with the online tablature player
if you'll listen closely to the song ira alters the progressions
of the chords on the ending measures

intro
Chord Progression:
G  Cadd9   Am7 Am7sus Am7 Am7sus
G  Cadd9   Am7sus Am7 Am7sus Am7

                 (#)
e[--3----3-------0-0---0-0-0---0-0-0---0-0--]]
B[--3----3-------1-1h3-3-3-3p1-1-1-1h3-3-3--]]
G[--0----0-------0-0---0-0-0---0-0-0---0-0--]]
D[--0----2-------2-2---2-2-2---2-2-2---2-2--]]
A[--2----3----------------------------------]]
E[--3---------------------------------------]]

                 (*)
e[--3----3-------0-0---0-0-0---0-0-0---0-0--]]
B[--3----3-------3-3p1-1-1-1h3-3-3-3p1-1-1--]]
G[--0----0-------0-0---0-0-0---0-0-0---0-0--]]
D[--0----2-------2-2---2-2-2---2-2-2---2-2--]]
A[--2----3----------------------------------]]
E[--3---------------------------------------]]

Verse
Chord progression: Same as intro, "alternate"

Ako'y malungkot na naman
Amo'y chico na ako
Ilang tagay na hindi pa rin tulog tanong ko lang sa langit
Kung bakit pumangit

Nung dating masaya
Ngayo'y pana'y problemang
bumabalot sa buto
Bakit ganito

chord: G-hold

chorus
chord progresion: either all downstrokes(put some accents on the bass) or fingerstyle

ang pagibig
ganyan talaga
pagbago ang pagibig
ganyan talaga
masaya

Chord: Cm-hold

verse
pagkagising ko
nakita ko si juan
na siyang adik
Sa aming lugar

Parang droga
Daw ang bisa
Nang ginamit nya kanina
Sa una lang daw
Masaya

Chorus
Ang pag ibig
Ganyan talaga
Ako'y nilamon
Na ng pag ibig
Ganyan talaga
Masaya

bridge
from Cm -
e[----------------------------------]
B[----------------------------------]
G[----------------------------------]
D[-5---7---9------------------------]x2
A[------------6-8-10-10hb--8p6h8----]
E[----------------------------------]
>>>>>i'm really not sure on the bridge there's still more after  on the last note, but im pretty
sure it repeats twice.<<<<<

Chorus
Ang pag ibig
Ganyan talaga
Ako'y nilamon
Na ng pag ibig
Ganyan talaga
Masaya