Barlowgirl - Let Go Text Guitar Tab

Learn song with the online tabulature player
-------------------------------------------------------------------------------
			     Let Go - BarlowGirl
-------------------------------------------------------------------------------

Tabbed By : usernametaken27
e-mail: billybobbillybobjoe2000@yahoo.com

Tuning: Standard

Verse x6
G|------7-------9-------5--------------------------------------------------|
D|----7---7---9---9---5---5------------------------------------------------|
A|--5-------7-------3--------3---------------------------------------------|
E|-------------------------------------------------------------------------|

Pre-Chorus
G|-------------------------------------------------------------------------|
D|-------------3-3----3-3--------------------------------------------------|
A|--3-33-3-33-------------3-33-3-33-5-55-5---------------------------------|
E|----------------1-1------------------------------------------------------|

Chorus x4
G|----------------------|--play 4th time-----------------------------------|
D|------------3333------|------333-----------------------------------------|
A|--5555-3333-----1133--|--333----111--5-5---------------------------------|
E|----------------------|--------------------------------------------------|

Repeat verse 
Pre-Chorus
G|-------------------------------------------------------------------------|
D|-------------------------------------------------------------------------|
A|----------------------3333333-5555-88888-10101010/12121212-11------------|
E|--33-111111-3333-5555----------------------------------------------------|

Chorus
Play Chorus throughout solo
Chorus again

Outro
G|-------------------------------------------------------------------------|
D|-----333-----------------------------------------------------------------|
A|-333----111--5-5---------------------------------------------------------|
E|-------------------------------------------------------------------------|

| /  slide up
| \  slide down
| h  hammer-on
| p  pull-off
| ~  vibrato
| +  harmonic
| x  Mute note
===============================================================================