Bauhaus - Hollow Hills Text Guitar Tab

Learn the song with the online tablature player
"Hollow Hills" by Bauhaus (from the album "Mask")

Notation :
        w : whole         t : 32th
        h : half              R : rest
        q : quarter           / : slide up
        e : 8th     h,p : hammer on, pull off
        s : 16th          \ : slide down

Intro
=====
   e     w        e   w          e
G----|--------------|---------------|
D----|--------------|---------------|
A--5-|-5/7--------2-|-3----------5--|
E----|--------------|---------------|

Riff I
main riff)
======
   e     q    e q   e e e   q    e q   e e e
G----|--------------------|------------------|
D----|----------5-----5---|--------5-----5---|
A--5-|-5/7----------5---2-|-3----------5---5-|
E----|--------0-----------|------0-----------|

Riff II
=======
   e     q    e q   e e e   q+e    q   e e e
G----|--------------------|------------------|
D----|----------5-----5---|------------5-----|
A--5-|-5/7----------5---2-|-3------------5-5-|
E----|--------0-----------|--------0---------|

Riff III
   e     q+e    q   e e e   q+e    q   e e e
G----|--------------------|------------------|
D----|--------------5-----|------------5-----|
A--5-|-5/7------------5-5-|-3------------5-5-|
E----|----------0---------|--------0---------|

Riff IV
final riff)
=======
       e    q    e q   e e e   q    e q   e e     e
G---------|------------------|-----------------------|
D---------|--------5-----5---|--------5-----5--------|
A--10/12\-|-7----------5---2-|-3----------5---10/12\-|
E---------|------0-----------|------0----------------|