BB Brunes - Perdus Cette Nuit Chords

 
No chord
    
Standard guitar tuning:
E
A
D
G
B
E
No capo
   Sol
E||-----------------|-----------------|
B||-----------------|-----------------|
G||-----------------|-----------------|
D||-----------------|-----------------|
A||-----------------|-----------------|
E||-3-3-3-3-3-3-3-3-|-3-3-3-3-3-3-3-3-|
Tous deux on
   Sol                                 Sim               Sim
E||-----------------|-----------------|-----------------|-----------------|
B||-----------------|-----------------|-----------------|-----------------|
G||-----------------|-----------------|-----------------|-----------------|
D||-----------------|-----------------|-----------------|-----------------|
A||-----------------|-----------------|-2-2-2-2-2-2-2-2-|-2-2-2-2-2-2-2-2-|
E||-3-3-3-3-3-3-3-3-|-3-3-3-3-3-3-3-3-|-----------------|-----------------|
sort on se couche tard... parapluie. Ils courent
   Sol                                 Sim               Sim
E||-----------------|-----------------|-----------------|-----------------|
B||-----------------|-----------------|-----------------|-----------------|
G||-----------------|-----------------|-----------------|-----------------|
D||-----------------|-----------------|-----------------|-----------------|
A||-----------------|-----------------|-2-2-2-2-2-2-2-2-|-2-2-2-2-2-2-2-2-|
E||-3-3-3-3-3-3-3-3-|-3-3-3-3-3-3-3-3-|-----------------|-----------------|
ils courent... je m'enfuis. Mais nous
  Sol                Mim               Sim               Sim
E||-----------------|-----------------|-----------------|-----------------|
B||-----------------|-----------------|-----------------|-----------------|
G||-----------------|-----------------|-----------------|-----------------|
D||-----------------|-----------------|-----------------|-----------------|
A||-----------------|-----------------|-2-2-2-2-2-2-2-2-|-2-2-2-2-2-2-2-2-|
E||-3-3-3-3-3-3-3-3-|-0-0-0-0-0-0-0-0-|-----------------|-----------------|
on rit... cette nuit. Blanchis
  Sol                Mim               Sim               Sim
E||-----------------|-----------------|-----------------|-2---------------|
B||-----------------|-----------------|-----------------|-3---------------|
G||-----------------|-----------------|-----------------|-4---------------|
D||-----------------|-----------------|-----------------|-4---------------|
A||-----------------|-----------------|-2-2-2-2-2-2-2-2-|-2---------------|
E||-3-3-3-3-3-3-3-3-|-0-0-0-0-0-0-0-0-|-----------------|-----------------|
devant... j'oublie. Tous deux on sort on se couche tard Les gens sont tous de vrais trouillards Sous leur parapluie Ils courent, ils courent à leur devoir Et cette grêle tombe à tout hasard Mais moi je m'enfuis Mais nous on rit, tu me fais boire On finit vite sur le trottoir Perdus cette nuit Blanchis devant ce grand ciel noir Tout devient vite désillusoire Affalé j'oublie
   Sol              Mim              Sim              Sim
E||----------------|----------------|----------------|----------------|
B||--------------5-|--------------5-|----------------|----------------|
G||-4-6-77-4-6-7---|-4-6-77-4-6-7---|-7-7-7777-77-7-7|-7-7-7777-77-7-7|
D||----------------|----------------|-9-9-9999-99-9-9|-9-9-9999-99-9-9| x2
A||----------------|----------------|-9-9-9999-99-9-9|-9-9-9999-99-9-9|
E||----------------|----------------|-7-7-7777-77-7-7|-7-7-7777-77-7-7|
Sol Mais nous on rit, tu me fais boire Mim On finit vite sur le trottoir Sim Sim Perdus cette nuit Sol Je me sens si seul dans ce brouillard Mim Comme en danger, c'est fou ce qu'on est Sim Sim Perdus cette nuit Mim La On s'est loupés de peu je crois Ré Je ne comprends pas Sol Pour nous deux c'est terminé Fa# Mim Que nous deux rien ne va La J'avais tellement envie de toi Ré Tu ne comprends pas, non Ré Je ne comprends pas, non
   Sol              Mim              Sim              Sim
E||----------------|----------------|----------------|----------------|
B||--------------5-|--------------5-|----------------|----------------|
G||-4-6-77-4-6-7---|-4-6-77-4-6-7---|-7-7-7777-77-7-7|-7-7-7777-77-7-7|
D||----------------|----------------|-9-9-9999-99-9-9|-9-9-9999-99-9-9| x2
A||----------------|----------------|-9-9-9999-99-9-9|-9-9-9999-99-9-9|
E||----------------|----------------|-7-7-7777-77-7-7|-7-7-7777-77-7-7|
Sol Mim Sim Sim C'est qu'on peut vite se rendre fou A jouer à qui tiendra le coup Perdus cette nuit Mais tu vois je m'en fous bien de savoir Qui a gagné ou bien qui a Perdu cette nuit On s'en ira, on s'en ira Tout comme les autres Tout commes les as Perdus cette nuit-là Et y'en aura bien d'autres comme ça Faut mieux en rire que prendre froid Perdus cette nuit-là Mim La On s'est loupés de peu je crois Ré Je ne comprends pas Sol Pour nous deux c'est terminé Fa# Mim Que nous deux rien ne va La J'avais tellement envie de toi Ré Tu ne comprends pas, non Ré Je ne comprends pas, non Sol Mim Sim Sim Danse Danse

All Content on this page is the property of the copyright owner of the original composition.