Be Your Own Pet - Adventure Text Guitar Tab

Learn song with the online tabulature player
Artist:Be Your Own Pet
  Song:Adventure
 Album:Be Your Own Pet
Tabbed by:Tony D(Temp144)

This song has been refered to personally by the band as "the catchy song"
and what a hell of a catchy song it is. The whole feel of the song makes
you feel like your on a jungle safari or something, so it's a pretty well-excuted song. 
was playin around with the bass and just made these, so try em, rate em and comment on 
ever. Long Live Taborama!

Intro:2x
G-----------------------------|
D-----------------------------|
A-33333-3333-33--33333-3333-0-|
E-----------------------------|

Verse: Play Intro 4x

Chorus:1x
G-------------------------------------------------------|
D-333-33-------000-00---------333-33-------000-00-------|
A--------1-3-0--------333-33--------1-3-0--------333-33-|
E-------------------------------------------------------|

G----------------------------------------------------------------|
D-333-33-------000-00-(slide)-777-77--333-33-------000-00--------|
A-------1-3-0--------------------------------1-3-0--------000-00-|
E----------------------------------------------------------------|

Post Chorus:2x
G------------------------------------|
D-------3---------3------------------|
A-33333---33333-3----3--2-0--3--2-0--|
E------------------------------------|

Verse:4x
Chorus:4x

Bridge:3x                                         Play after 3x
G--------------------------------------------------|----------|
D--------------------------------------------------|----------|
A-3-2-0-3-2-0--------------3-2-0-3-2-0-------------|----------|
E-------------3-3-5-1-1-1--------------3-3-5-0-0-0-|--0(ring)-|

Chorus:8x

Outro:1x
G---------|
D---------|
A-3-3-3---|
E---------|